Song name
# A B C D E F G H I J K L M N O P Q R S T U V W X Y Z

Misc Unsigned Bands - Wildstreak - Kickin It Old School tab

Help us improve GuitareTab! Take a short survey!
Kickin' It Old School
by: wildstreak

4/4

INTRO

e-----------------|-----------------|-----------------|----------------|
b-5-5-5-3-3-3-3-3-|-2-2-2-3-3-3-3-3-|-5-5-5-3-3-3-3-3-|-----3----------|
g-4-4-4-4-4-4-4-4-|-2-2-2-2-2-2-2-2-|-4-4-4-4-4-4-4-4-|---2-2---2--2---|2x
d-----------------|-----------------|-----------------|-0-2-0---2--2---|
a-----------------|-----------------|-----------------|---0-----0--0---|
E-----------------|-----------------|-----------------|----------------|

VERSE

e-----------------|-------------3---|-----------------|-----------------|
b---------3-------|-------------3---|-3-3-3\---------3|-----------------|
g-4-4-2---2-------|---4---2-----0-x-|-2-2-2\-4-4-2---2|------------4----|
d-4-4-2---0---2---|---4---2-----0-x-|-0-0-0--4-4-2---0|--2---------4----|
a-2-2-0---------2-|---2---0-----x-x-|--------2-2-0----|----2-------2----|
E-------0---0-----|-0---------x-3---|--------------0--|0-----0---0------|

|------3-3--------|-----------------|-----------------|-----------------|
|------3-3----3---|-------(3)-------|-------(3)-------|-------(3)-------|
|2-----0-0-2--2---|-------(2)-------|-------(2)-------|-------(2)-------|
|2-----0-0-2--0---|-------(0)-------|-------(0)-------|-------(0)-------|
|0-----x-x-0------|-----------------|-----------------|-----------------|
|----0-3-3--------|-----------------|-----------------|-----------------|
                  <----------hold for-4 more measures------------------->


e-----------------|-------------3---|-----------------|-----------------|
b---------3-------|-------------3---|-3-3-3\---------3|-----------------|
g-4-4-2---2-------|---4---2-----0-x-|-2-2-2\-4-4-2---2|------------4----|
d-4-4-2---0---2---|---4---2-----0-x-|-0-0-0--4-4-2---0|--2---------4----|
a-2-2-0---------2-|---2---0-----x-x-|--------2-2-0----|----2-------2----|
E-------0---0-----|-0---------x-3---|--------------0--|0-----0---0------|
                                                                         
|------3-3--------|-----------------|-----------------|-----3-3---------|
|------3-3----3---|-------(3)-------|-------(3)-------|-----3-3----3----|
|2-----0-0-2--2---|-------(2)-------|-------(2)-------|-----0-0-2--2----|
|2-----0-0-2--0---|-------(0)-------|-------(0)-------|-----0-0-2--0----|
|0-----x-x-0------|-----------------|-----------------|-----x-x-0-------|
|----0-3-3--------|-----------------|-----------------|---0-3-3---------|
                  <--------------------------2x------------------------->

Pre- Chorus

e-----3-3---------|
b-----3-3----3----|
g-----0-0-2--2----|3x
d-----0-0-2--0----|
a-----x-x-0-------|
E---0-3-3---------|

CHORUS
were kickin it old school            were kickin it old school
e-----------------|-----------------|-----------------|-----------------|
b-2-3-3-2---3-----|-----------------|-2-3-3-2---3-----|-----------------|
g-2-2-2-2---0--2--|---4-4---7---7--2|-2-2-2-2---0--2--|---4-4---7---7--2|4x
d-2-4-4-2---0--2--|---4-4---7---7--2|-2-4-4-2---0--2--|---4-4---7---7--2|
a-0-----0---x--0--|-0-2-2-0-5-0-4--0|-0-0-0-0---x--0--|-0-2-2-0-5-0-4--0|
E-----------3-----|-----------------|-----------3-----|-----------------|

VERSE

e-----------------|-------------3---|-----------------|-----------------|
b---------3-------|-------------3---|-3-3-3\---------3|-----------------|
g-4-4-2---2-------|---4---2-----0-x-|-2-2-2\-4-4-2---2|------------4----|
d-4-4-2---0---2---|---4---2-----0-x-|-0-0-0--4-4-2---0|--2---------4----|
a-2-2-0---------2-|---2---0-----x-x-|--------2-2-0----|----2-------2----|
E-------0---0-----|-0---------x-3---|--------------0--|0-----0---0------|

|------3-3--------|
|------3-3----3---|
|2-----0-0-2--2---|
|2-----0-0-2--0---|
|0-----x-x-0------|
|----0-3-3--------|

e-----------------|-------------3---|-----------------|-----------------|
b---------3-------|-------------3---|-3-3-3\---------3|-----------------|
g-4-4-2---2-------|---4---2-----0-x-|-2-2-2\-4-4-2---2|------------4----|
d-4-4-2---0---2---|---4---2-----0-x-|-0-0-0--4-4-2---0|--2---------4----|
a-2-2-0---------2-|---2---0-----x-x-|--------2-2-0----|----2-------2----|
E-------0---0-----|-0---------x-3---|--------------0--|0-----0---0------|

|------3-3--------|-----------------|-----------------|-----------------|
|------3-3----3---|-------(3)-------|-------(3)-------|-------(3)-------|
|2-----0-0-2--2---|-------(2)-------|-------(2)-------|-------(2)-------|
|2-----0-0-2--0---|-------(0)-------|-------(0)-------|-------(0)-------|
|0-----x-x-0------|-----------------|-----------------|-----------------|
|----0-3-3--------|-----------------|-----------------|-----------------|
                  <----------hold for-4 more measures------------------->

CHORUS
were kickin it old school            were kickin it old school
e-----------------|-----------------|-----------------|-----------------|
b-2-3-3-2---------|-----------------|-2-3-3-2---------|-----------------|
g-2-2-2-2------2--|---4-4---7---7--2|-2-2-2-2------2--|---4-4---7---7--2|2x
d-2-4-4-2------2--|---4-4---7---7--2|-2-4-4-2------2--|---4-4---7---7--2|
a-0-----0------0--|-0-2-2-0-5-0-4--0|-0-0-0-0------0--|-0-2-2-0-5-0-4--0|
E---------3b5-----|-----------------|---------3b5-----|-----------------|

lead (bridge)
e-----------------------------------------------------|-----------------|
b-----------------------------------------------------|-----------------|
g-same as chorus--------------------------------------|---4-4---7---7---|
d-----------------------------------------------------|---4-4---7---7--7|
a-----------------------------------------------------|-0-2-2-0-5-0-4---|
E-----------------------------------------------------|-----------------|

------------------|-----------------|-----------------|
------------------|-----------------|-----------------|
-------------5b7-7|-5~~~------------|-----------------|
~~~~~~-5-7~~------|------5-7~~~-x<~~|~~~~-------------|
------------------|-------------x<~~|~~~~-------------|
------------------|-----------------|-----------------|

SOLO
                                                           ^b  ^
e-----------------|-----------------|-----------------|-----------------|
b-8b10-pb10~~-8b10|-----------------|----------8b10-8~|-----------------|
g-----------------|-9-7---7~~-------|-----------------|9-7-5b7---5~~-5~\|
d-----------------|-----9-----9--7--|---9-9~~~--------|--------7--------|
a-----------------|----------------9|~~---------------|-----------------|
E-----------------|-----------------|-----------------|-----------------|

       ^ ^                                                    
------------------|-----------------|-----------------|-----------------|
------------------|-15b17-15b17~~---|------------15-17|b19-17-15-14-----|
-7-5-7------------|---------------14|12----14~~~------|-------------16b=|
-------5-5--5~~~\-|-----------------|---14------------|-----------------|
------------------|-----------------|-----------------|-----------------|
------------------|-----------------|-----------------|-----------------|

                                                   sb            ^ ^ ^
------------------|-----------------|-----------------|-----------------|
-------15---------|-----------------|-----------------|-----------------|
18~~~~----16~~~-14|12----12~~~\-----|--------------5b7|----------------9|
------------------|---12------------|-----------------|7-5-7~~~~-7-9-7--|
------------------|-----------------|---7-5-7b8~~~----|-----------------|
------------------|--------------5b7|~~---------------|-----------------|

                                                          ^b
------------------|-----------------|-----------------|-----------------|
-------7b8-10~-10b|=12-pb12-10-9----|----------10-----|---12b14-pr13~~~-|
7--9~~-7b9--------|--------------7~-|9~~~-9b11====pr9-|9~---------------|
------------------|-----------------|-----------------|-----------------|
------------------|-----------------|-----------------|-----------------|
------------------|-----------------|-----------------|-----------------|

------------------|-----------------|-----------------|-19-22b24-22b24--|
------------------|-----------------|---7b8-----------|-----------------|
-11-9-------------|---------7-------|---7b9-----------|-----------------|
------11-9--------|-------7---7-9-7-|9~-----9-7---9~~-|-----------------|
-----------11-10-9|---9~~-----------|-----------9-----|-----------------|
------------------|12---------------|-----------------|-----------------|

22b24-22-22b24~~~\|-----------------|
------------------|-----------------|
------------------|-----------------|
------------------|-x<~~~~~~~~------|
------------------|-x<~~~~~~~~------|
------------------|-----------------|

CHORUS
were kickin it old school            were kickin it old school
e-----------------|-----------------|-----------------|-----------------|
b-2-3-3-2---3-----|-----------------|-2-3-3-2---3-----|-----------------|
g-2-2-2-2---0--2--|---4-4---7---7--2|-2-2-2-2---0--2--|---4-4---7---7--2|2x
d-2-4-4-2---0--2--|---4-4---7---7--2|-2-4-4-2---0--2--|---4-4---7---7--2|
a-0-----0---x--0--|-0-2-2-0-5---4--0|-0-0-0-0---x--0--|-0-2-2-0-5---4--0|
E-----------3-----|-----------------|-----------3-----|-----------------|
2 full times then do this

Were kickin it old school!!!!!
                                                        sps
e-----------------|-----------------|-----------------|-----------------|
b-2-3-3-2---3-----|-----------------|-----------------|-----------------|
g-2-2-2-2---0--2--|-------4==b6-----|-------(6)-------|-----------------|
d-2-4-4-2---0--2--|-----------------|-----------------|-x<~~~~~~~~~~~~~~|
a-0-----0---x--0--|-----------------|-----------------|-x<~~~~~~~~~~~~~~|
E-----------3-----|-----------------|-----------------|-----------------|

OUTRO
were kickin it old school            were kickin it old school
e-----------------|-----------------|-----------------|-----------------|
b-2-3-3-2---3-----|-----------------|-2-3-3-2---3-----|-----------------|
g-2-2-2-2---0--2--|---4-4---7---7--2|-2-2-2-2---0--2--|---4-4---7---7--2|2x
d-2-4-4-2---0--2--|---4-4---7---7--2|-2-4-4-2---0--2--|---4-4---7---7--2|
a-0-----0---x--0--|-0-2-2-0-5---4--0|-0-0-0-0---x--0--|-0-2-2-0-5---4--0|
E-----------3-----|-----------------|-----------3-----|-----------------|
do this 2 full times
 then do the ending

e-----------------|-----------------|-----------------|-----------------|
b-2-3-3-2---3-----|-----------------|-----------------|-7b8~~~-5~~~~~~~~|
g-2-2-2-2---0--2--|-------(2)-------|-------(2)-------|-7b9~~~-5~~~~~~~~|
d-2-4-4-2---0--2--|-------(2)-------|-------(2)-------|-----------------|
a-0-----0---x--0--|-------(0)-------|-------(0)-------|-----------------|
E-----------3-----|-----------------|-----------------|-----------------|

------------------|-----------------|-----------------|-----------------|
~~~~~~~\----------|-----------------|-----------------|-8b10~~~-8-7-----|
~~~~~~~\----------|-----------------|-----------------|-------------9-7-|
------------------|-----------------|-----------------|-----------------|
------------------|-----------------|-----------------|-----------------|
------------------|-----------------|-----------------|-----------------|

------------------|-----------------|-----------------|
------------------|-----------------|-----------------|
-9----------------|-----------------|------2----------|
---7-5------------|-----------------|------2----------|
-------5=h7-7b9~~~|~~~~~~~~~~~~~~~~~|------0----------|
------------------|-----------------|-----------------|
Related for Wildstreak - Kickin It Old School tab