Song name
# A B C D E F G H I J K L M N O P Q R S T U V W X Y Z

Misc Unsigned Bands - The Greenest Red - My Thoughts tab



                          MY THOUGHTS
                       THE GREENEST RED


intro
e|--7--6---------------------------------|
b|--------7--0---------------------------|
g|--------------7--0---------------------|
d|--------------------7--0---------------|
a|--------------------------7--0---------|
e|--------------------------------7~~~~~-|
                                slow vibrato


pre-chorus
e|--------------------|
b|--------------------|
g|--------------------|  3x's
d|--6--6--7--7--5-----|  then
a|--6--6--7--7--5-----|
e|--4--4--5--5--3-----|

e|--------------------|
b|--------------------|
g|--------------5-----|
d|--6--6--7--7--3-----|
a|--6--6--7--7--3-----|
e|--4--4--5--5--------|


verse a
e|---------------------------------------|
b|---------------------------------------|
g|---------------------------------------|
d|---------------------------------------|
a|--4--6--4--6--4--6--4--6--4--6---------|
e|--------------------------------4~~~~~-|
                              slow vibrato

verse b 1
e|-------------------|
b|-------------------|
g|-------------5-----|
d|--5----------5-----|
a|--5----------3-----|
e|--3----------------|

verse b 2
e|------------------------|
b|------------------------|
g|------------------5-----|
d|--5----6-5--6-5---5-----|
a|--5----6-5--6-5---3-----|
e|--3----4-3--4-3---------|


chorus
e|----------------------------------------------------------------|
b|----------------------------------------------------------------|
g|-----------------------------------------------------3-----3--4-|
d|--3-3-3-3-3-3-4-4-3-3-3-3-3-3-4-4-3-3-3-3-3-3-4-4-3--3--3--3--4-|
a|--3-3-3-3-3-3-4-4-3-3-3-3-3-3-4-4-3-3-3-3-3-3-4-4-3--1--3--1--2-|
e|--1-1-1-1-1-1-2-2-1-1-1-1-1-1-2-2-1-1-1-1-1-1-2-2-1-----1-------|


solo       tremolo pick      #ten
e|--34534534534534534534534534510----10--8------10--8------10--8------|
b|------------------------------------------10---------10---------10--|
g|--------------------------------------------------------------------|
d|--------------------------------------------------------------------|
a|--------------------------------------------------------------------|
e|--------------------------------------------------------------------|
                                     elevens & twelves tremolo pick
e|--10--8------10--8------10--8------11111111111112----|
b|---------10----------10--------10--------------------|
g|-----------------------------------------------------|
d|-----------------------------------------------------|
a|-----------------------------------------------------|
e|-----------------------------------------------------|

e|--9--9-9--9-9-0-7--7-7--7-7-0-6--6-6--6-6-0----------------|
b|--------------------------------------------6--5--6--5--0--|
g|-----------------------------------------------------------|repeat 3's
d|-----------------------------------------------------------| then
a|-----------------------------------------------------------|
e|-----------------------------------------------------------|

e|--9--9-9--9-9-0-7--7-7--7-7-0-10~~~~~10b~~10b--10b--|
b|----------------------------------------------------|
g|----------------------------------------------------|
d|----------------------------------------------------|
a|----------------------------------------------------|
e|----------------------------------------------------|
     pickslide from 22 to 12
e|-----------------------------------------------------------------------|
b|-----------------------------------------------------------------------|
g|-----------9-8-7-9-8-7-9-8-7-9-8-7-9-8-7-9-8-7-7h8h9-7h8h9--9b---------|
d|-----------------------------------------------------------------------|
a|--x/-------------------------------------------------------------------|
e|--x/-------------------------------------------------------------------|


outro
e|-------------------------------|
b|-------------------------------|
g|---------------------3-----3-4-| repeat twice
d|--3-3-3-3-3-3-4-4-3--3--3--3-4-|
a|--3-3-3-3-3-3-4-4-3--1--3--1-2-|
e|--1-1-1-1-1-1-2-2-1-----1------|

e|---------------|
b|---------------|
g|-----3-----3-4-| rpeat twice
d|--3--3--3--3-4-|
a|--3--1--3--1-2-|
e|--1-----1------|

e|-----------------|
b|-----------------|
g|-----3-----3-4-3-|
d|--3--3--3--3-4-3-|
a|--3--1--3--1-2-1-|
e|--1-----1--------|

                                   END


                                STRUCTURE
                                 intro 8x's
                                pre chorus 1x
                              verse part a 4x's
                               verse part b 1 1x
                               verse part a 2x's
                              verse part b 2 1x
                                pre chorus 1x
                                  chorus 4x's
                               verse part a 4x's
                               verse part b 1 1x
                               verse part a 2x's
                               verse part b 2 1x
                                pre chorus 1x
                                      solo
                                 pre chorus 1x
                                  chorus 2x's
                                    outro


                                     lyrics
you always putting me down saying i cant icant
i know that i can say that a gain                         verse 1

always the same thing saying i cant i cant
i know what youll say dont say it again

dont do it dont do it
repeat 3xs                      pre chorus

i dont even really wanna
i dont even really wanna          chorus
i dont even really wanna

repeat 4xs

always the same shit saying i know iknow
you dont know dont say it again

you always bragging i know iknow
dont care if you know dont say it again      verse 2
Tap to rate this tab
 
# A B C D E F G H I J K L M N O P Q R S T U V W X Y Z