Song name
# A B C D E F G H I J K L M N O P Q R S T U V W X Y Z

Misc Unsigned Bands - Savannah Outen - Stop And Stare tab

im pretty sure this is 100% right. i watched savannah's video a lot to learn this. the
doesnt sound like the one on the video unless you use the same guitar savannah has. the
really just repeats itself. oh yeah, this is my very first tab and im using my phone to 
it. its best if you use a thumb pick. you can get one
at your music store.
listen to
the video for strumming. youtube.com/savannah7448
tuning: Capo 1


intro
e------|
B------|
G----9-|
D----9-|
A----7-|
E------|

verse 1

e-------------------------------------------------|
B-------------------------------------------------|
G----9--------7--------5-----------------7--------|
D----9--------7--------5-------2--------7---------|
A----7--------5--------3-------2--------5---------|
E-------------------------------------------------|

E----------------------------------------------------|
B----------------------------------------------------|
G--------7-------------------3-------------------5---|
D---2----7--------2---------5---------2--------5-----|
A---2----5--------2---------5---------2--------3-----|
E----------------------------------------------------|

Chorus

e---------------------------------------------|
B---------------------------------------------|
G----9-------7-------5---------------5--------|  x2
D----9-------7-------5-------2-------5--------|
A----7-------5-------3-------2-------3--------|
E---------------------------------------------|

play everything again for the second part

bridge

e---------------------------------------------|
B---------------------------------------------|
G-------9-------7-------5----------------5----|
D-------9-------7-------5-------2-------5-----|
A-------7-------5-------3-------2-------3-----|
E---------------------------------------------|

chorus

end with

e--------------------|
B--------------------|
G-------9------------|
D-------9------------|
A-------7------------|
E--------------------|

myspace.com/savannahoutenofficial
Tap to rate this tab
 
# A B C D E F G H I J K L M N O P Q R S T U V W X Y Z