Song name
# A B C D E F G H I J K L M N O P Q R S T U V W X Y Z

Misc Unsigned Bands - The Hoojits - Trouble Sleeping tab

-----------------------------------------------------------------------------
			TROUBLE SLEEPING - The Hoojits
-----------------------------------------------------------------------------
Tabbed by:Chrus
Email: e-mail@e-mail.com

Tuning:EADGBe

Intro and Verse 5
e|-----4------2---------x------4-------2--------x------4-------2---------x--|
B|-------5------3-----2~x--------5-------3----2~x--------5-------3-----2~x--|
G|--------------------2~x---------------------2~x----------------------2~x--|
D|---6------4-----------x----6-------4----------x----6-------4-----------x--|
A|-4------2-------0-0x--x--4-------2-------0-0x-x--4-------2-------0-0x--x--|
E|--------------------------------------------------------------------------|

e|-----4-------2---------x--------------------------------------------------|
B|-------5-------3-----2~x--------------------------------------------------|
G|---------------------2~x--------------------------------------------------|
D|---6-------4---------2~x--------------------------------------------------|
A|-4-------2-------0-0x--x--------------------------------------------------|
E|--------------------------------------------------------------------------|

Verses 1,2&3
e|-----4-------2---------------------4-------2------------------------------|
B|-------5-------3-----2~--------------5-------3-----2~---------------------|
G|---------------------2~----------------------------2~---------------------|
D|---6-------4------------0h2p0----6-------4------------0h2p0---------------|
A|-4-------2-------0-0-----------4-------2-------0-0------------------------|
E|--------------------------------------------------------------------------|

e|-----4-------2---------------------4-------2------------------------------|
B|-------5-------3-----2~--------------5-------3-----2~---------------------|
G|---------------------2~----------------------------2~---------------------|
D|---6-------4------------0h2p0----6-------4---------2~---------------------|
A|-4-------2-------0-0-----------4-------2-------0-0x-----------------------|
E|--------------------------------------------------------------------------|

Chorus 1
e|-1-1-11/333/5~------------------------------------------------------------|
B|-3-3-33/555/7~------------------------------------------------------------|
G|-3-3-33/555/7~------------------------------------------------------------|
D|-3-3-33/555/7~------------------------------------------------------------|
A|-1-1-11/333/5~------------------------------------------------------------|
E|--------------------------------------------------------------------------|

Chorus 2
e|-1-1-11/333/5-5555555--1-1-11/333/5~--------------------------------------|
B|-3-3-33/555/7-7777777--3-3-33/555/7~--------------------------------------|
G|-3-3-33/555/7-7777777--3-3-33/555/7~--------------------------------------|
D|-3-3-33/555/7-7777777--3-3-33/555/7~--------------------------------------|
A|-1-1-11/333/5-5555555--1-1-11/333/5~--------------------------------------|
E|--------------------------------------------------------------------------|

Chorus 3
e|-1-1-11/333/5-5555555--1-1-11/333/5-5555555--1-1-11/333/5-5555555---------|
B|-3-3-33/555/7-7777777--3-3-33/555/7-7777777--3-3-33/555/7-7777777---------|
G|-3-3-33/555/7-7777777--3-3-33/555/7-7777777--3-3-33/555/7-7777777---------|
D|-3-3-33/555/7-7777777--3-3-33/555/7-7777777--3-3-33/555/7-7777777---------|
A|-1-1-11/333/5-5555555--1-1-11/333/5-5555555--1-1-11/333/5-5555555---------|
E|--------------------------------------------------------------------------|

e|-1-1-11/333/5~------------------------------------------------------------|
B|-3-3-33/555/7~------------------------------------------------------------|
G|-3-3-33/555/7~------------------------------------------------------------|
D|-3-3-33/555/7~------------------------------------------------------------|
A|-1-1-11/333/5~------------------------------------------------------------|
E|--------------------------------------------------------------------------|

Verse 4
e|-4-4-4-44\2-2-2-22-0-0-0~x0/-4-4-4-44\2-2-2-22-0-0-0~x0/-4~x-2~x-0x0~x----|
B|-5-5-5-55\3-3-3-33-2-2-2~x2/-5-5-5-55\3-3-3-33-2-2-2~x2/-5~x-3~x-2x2~x----|
G|-6-6-6-66\4-4-4-44-2-2-2~x2/-6-6-6-66\4-4-4-44-2-2-2~x2/-6~x-4~x-2x2~x----|
D|-6-6-6-66\4-4-4-44-2-2-2~x2/-6-6-6-66\4-4-4-44-2-2-2~x2/-6~x-4~x-2x2~x----|
A|-4-4-4-44\2-2-2-22-0-0-0~x0/-4-4-4-44\2-2-2-22-0-0-0~x0/-4~x-2~x-0x0~x----|
E|--------------------------------------------------------------------------|

e|-4-4-4-44\2-2-2-22-0-0-0~x0-----------------------------------------------|
B|-5-5-5-55\3-3-3-33-2-2-2~x2-----------------------------------------------|
G|-6-6-6-66\4-4-4-44-2-2-2~x2-----------------------------------------------|
D|-6-6-6-66\4-4-4-44-2-2-2~x2-----------------------------------------------|
A|-4-4-4-44\2-2-2-22-0-0-0~x0-----------------------------------------------|
E|--------------------------------------------------------------------------|

Solo
e|--------------------------------------------------------------------------|
B|-----------------------------------------------------------------20-------|
G|------------------------------17-19-19p17---------------------------19~---|
D|------------------------17-19---------------------------------------------|
A|-1/13-13-13/15-15-15/17~-------------------13-13-13/15-15-15/17~----------|
E|--------------------------------------------------------------------------|

e|----------------------20-17-----------------------------------------------|
B|----------------------------20-17-----------------------------------------|
G|----------------------------------19-17-----------------------------------|
D|----------------------------------------19--------------------------------|
A|-13-13-13/15-15-15/17~----------------------13-13-13/15-15-15/17~---------|
E|--------------------------------------------------------------------------|

| /  slide up
| \  slide down
| h  hammer-on
| p  pull-off
| ~  vibrato
| +  harmonic
| x  Mute note
=============================================================================
Tap to rate this tab
 
# A B C D E F G H I J K L M N O P Q R S T U V W X Y Z