Song name
# A B C D E F G H I J K L M N O P Q R S T U V W X Y Z

Misc Unsigned Bands - The Methadones - Say Goodbye To Your Generation tab

i only know this bit cause i played random tabs and thought it sounded a bit like it, 
actually a power chord so here is the tab and the power chord.plz say if its good or bad.
tab:
intro
e|-----------------------------------------------------------|
b|-----------------------------------------------------------|
g|-----------------------------------------------------------|
d|-----------------------------------------------------------|            x5
a|--4-5-5-5-5-5-5-5-5-5-5-5-5--------------------------------|
e|--4-5-5-5-5-5-5-5-5-5-5-5-5--------------------------------|
a few seconds after the guy starts singing:

e|-----------------------------------------------------------|
b|-----------------------------------------------------------|
g|-----------------------------------------------------------|
d|-----------------------------------------------------------|
a|--3-3-3-3-3-3-3-3-3-5-5-5-5-5-5-5-5-3-3-3-3-3-3-3-3--------|
e|--3-3-3-3-3-3-3-3-3-5-5-5-5-5-5-5-5-3-3-3-3-3-3-3-3--------|

thats all i know sorry im not tha good at making tabs especially when there are  no 
to look at:( oh well tell me if its good or bad


http://www.myspace.com/themethadones
Tap to rate this tab
 
# A B C D E F G H I J K L M N O P Q R S T U V W X Y Z