Guitaretab - guitar tabs
Song name
# A B C D E F G H I J K L M N O P Q R S T U V W X Y Z

Misc Unsigned Bands - Lucas Abbott - A Heaven Of My Own tab

Main riff
Intro/verse

E   ------------------------------------------------------------------------------------------|
B   ------11---------11--------11-------11---------11--------11-------11---------11-----------|
G   ---10---10---10---10---10---10---10---10---10---10---10---10---10---10---10---10----------|
D   12---------12--------12---------12--------13--------13------13---------13-----------------|
A   ------------------------------------------------------------------------------------------|
E   ------------------------------------------------------------------------------------------|

      If ever there was, a time, when I could be glad
      It would be one of the times when I am with you
      ĎCause believe me when I say this, you are
      My sun, my stars, my clear blue sky and I
      I just know, I have a heaven of my own

Bridge

E   -------------------------------------------|      (x2)
B    -----6-------6--------6-------6-----------|
G   ---5---5---5---5---5---5---5---5-----------|
D   7--------7--------8-------8----------------|
A   -------------------------------------------|
E   -------------------------------------------|
[ Tab from: http://www.guitaretab.com/m/misc-unsigned-bands/105933.html ]
E    ------------------------------------------------------------------------|
B   ------4-------4-------4------4-------6-------6-------6-------6-----------|
G   ---3---3---3---3---3---3---3---3---5---5---5---5---5---5---5---5---------|
D   5--------5--------5-------5-------7-------7-------7-------7--------------|
A   -------------------------------------------------------------------------|
E   -------------------------------------------------------------------------|

      Cause if ever there was a time when we could settle down
      And find a way, to be ourselves, that would beÖ

Main riff

      Now

      And I just like, the way you look at me
      And I just adore, how you are when youíre with me
      It makes me feel that I have found what everyone is looking for
      But maybe thatís because I have,
      You are a heaven of my own


Bridge

ĎCause if ever there was a time, when I could find a way
To be myself, and just relax, that would be

Main Riff

Now

But maybe, Iíve just gone crazy
And maybe, itís just a dream
But no matter how, I look at things
Even if Iím not meant to be with you
I still enjoy the fact that I am
And I still want to take the time
To tell you just how I feel

You are a heaven of my own
I have a heaven of my own
A heaven of my own
A heaven of my own
(Slow down)
Mhmm, A heaven of my own
Related for Lucas Abbott - A Heaven Of My Own tab