Song name
# A B C D E F G H I J K L M N O P Q R S T U V W X Y Z

Misc Unsigned Bands - A Hick - Oh Susana tab

|----0-3-3-5-3-0---0-0------|
|-1-3-----------1-3---3-1-3-|
|---------------------------|
|---------------------------|
|---------------------------|
|---------------------------|

then
|----0-3-3-5-3-0---0-0------|
|-1-3-----------1-3---3-3-1-|
|---------------------------|
|---------------------------|
|---------------------------|
|---------------------------|


and then
|-1-1-4/5-5-3-3-0-----------|
|----------------1-3--------|
|---------------------------|
|---------------------------|
|---------------------------|
|---------------------------|


then finaly 
|----0-3-3-5-3-0---0-0------|
|-1-3-----------1-3---3-3-1-|
|---------------------------|
|---------------------------|
|---------------------------|
|---------------------------|


and thats bacicly it so a word of advice is to practice each part separatly 
if you have any questions you can contact me on xbox live 
Gamertag:Gunney sgt bob
Tap to rate this tab
# A B C D E F G H I J K L M N O P Q R S T U V W X Y Z