Song name
# A B C D E F G H I J K L M N O P Q R S T U V W X Y Z

Misc Unsigned Bands - Kate Plummer - Maxs Song tab

This Song "Maxs Song" is played on the first, Second & Sixth strings only    ( the 
E', 'B' & 'upper E' strings).

----0--------2---------3-2-0--------0--------2--------3-5-7--------|
--------0---------0-------------0--------0--------0----------------|
-------------------------------------------------------------------|
-------------------------------------------------------------------|
-------------------------------------------------------------------|
-------------------------------------------------------------------|

---------0----------2----------3-2-0----------0---------2---------|
----0---------0----------0---------------0---------0---------0----|
------------------------------------------------------------------|
------------------------------------------------------------------|
------------------------------------------------------------------|
------------------------------------------------------------------|

----3-2-0---------------------------------------------------------|
------------------------------------------------------------------|
------------------------------------------------------------------|
------------------------------------------------------------------|
------------------------------------------------------------------|
--------0---------------------------------------------------------|

Hope you like it!
Tap to rate this tab
# A B C D E F G H I J K L M N O P Q R S T U V W X Y Z