Song name
# A B C D E F G H I J K L M N O P Q R S T U V W X Y Z

Misc Unsigned Bands - Cody Boon - 4736 tab

this is a sweet song i made up. its modern rock.
if you have any problems e-mail me at codyboon@yahoo.com

Tab notation(for this song)
*  pinch harmonic
h  hammer on
p  pull off
wh whammy bar
\  slide up
/  slide down
T  tap
b  bend string

intro/verse 1
E:--------------------------------------------------|
B:------7b-------7b-------7b------------------------|
G:------7b-------7b-------7b------7b--5h7p5h7-------|
D:---------------------------------------------7/5--|
A:X5-5-----X5-5------X5-------X5--------------------|
E:X5-5-----X5-5------X5-------X5--------------------|

E:--------------------------------------------------|
B:------5b-------5b------5b-------------------------|
G:------5b-------5b------5b--5b--4h5p4h5------------|
D:---------------------------------------5/4--------|
A:X5-5-----X5-5------X5-----------------------------|
E:X5-5-----X5-5------X5-----------------------------|

play all that 2 times.

chorus: 1
E:---------------------------------------|
B:---------------------------------------|
G:---------------------------------------|
D:---------------------------------------| X3
A:-5wh-----------------7---------1----3--|
E:-5wh-----------------7---------1----3--|

E:-----------|
B:-----------|
G:-----------|
D:-----------|
A:-5-5-5-5-5-|
E:-5-5-5-5-5-|

verse 2
E:--------------------------------------------------|
B:------7b-------7b-------7b------------------------|
G:------7b-------7b-------7b------7b--5h7p5h7-------|
D:---------------------------------------------7/5--|
A:X5-5-----X5-5------X5-------X5--------------------|
E:X5-5-----X5-5------X5-------X5--------------------|

E:--------------------------------------------------|
B:------5b-------5b------5b-------------------------|
G:------5b-------5b------5b--5b--4h5p4h5------------|
D:---------------------------------------5/4--------|
A:X5-5-----X5-5------X5-----------------------------|
E:X5-5-----X5-5------X5-----------------------------|

now...
chorus: 2
E:---------------------------------------|
B:---------------------------------------|
G:---------------------------------------|
D:---------------------------------------| X3
A:-5wh-----------------7---------1----3--|
E:-5wh-----------------7---------1----3--|

E:-----------|
B:-----------|
G:-----------|
D:-----------|
A:-5-5-5-5-5-|
E:-5-5-5-5-5-|

here comes the solo
E:----------------------------------------------------------------------|
B:----------------------------------------------------------------------|
G:------------------7b--5h7p5h7-----------------------------------------|
D:------------------------------5h7p5h7---------------------------------|
A:-5-5-5---5--X--5-----------------------5h7p5h7------------------------|
E:-5-5-5---5--X--5-------------------------------5h7p5h7p5h7-03b-3b-3b--|

E:-----------------------5--8--5h8p5h7h8p7p5-----------------------------|
B:------------------5--8-------------------------------------------------|
G:-------------5--7------------------------------------------------------|
D:--------5--7-----------------------------------------------------------|
A:---5--7--------------------------------------5-5-5-5-5-5-5-5-5-5-5-5-5-|
E:-7-------------------------------------------5-5-5-5-5-5-5-5-5-5-5-5-5-|

then chorus once more....

and thats my song. have fun with it.

effects i use...
boss: ds1(distortion)
and a fender amp
with my fender strat
with a whammy bar

and thats it...
Tap to rate this tab
# A B C D E F G H I J K L M N O P Q R S T U V W X Y Z