Guitaretab - guitar tabs
Song name
# A B C D E F G H I J K L M N O P Q R S T U V W X Y Z

Misc Unsigned Bands - Gwen Stacy - Sleeping In The Train Yard tab

I think this song is pretty much all correct. There may be a few errors, but I think 
so small that you can figure them out.

Just look to the times if you get lost.

Any questions e-mail me.

Artist: Gwen Stacy
Album: The Life I Know
Song: Sleeping in the Train Yard

e-mail  poppyben@gmail.com
Myspace  www.myspace.com/benthedragongod

Legend
PM  Palm Mute
~ - Let ring
S  slide
X  Mute note
V  Vibrato
*(P.H) - Pinch Harmonic
*(N.H)  Natural Harmonic
p  pull-off
h  hammer-on

Tuning: Drop C


(0:00-0:08)Intro Techno Noises


(0:08-2:10) Guitar 1
D|-------8------5~----------8------5~------------------------------|
A|--6~-----6-----------6~-----6----------6--5555555~---5555555~----|
F|--7~--------7--------7~--------7-------7--5-5-5-5~---5-5-5-5~----|
C|-----------------------------------------------------------------|
G|-----------------------------------------------------------------|
C|-----------------------------------------------------------------|x8

(1:09-2:10) Guitar 2
D|--------------------------|
A|--------------------------|
F|--------------------------|
C|--------------------------|
G|---8(x32)-----3(x32)----|
C|--------------------------|x4
PM   .           .

(2:10-3:11) Guitar 1
D|------8-----5------------<<--------------------------<<---------|
A|-6~-----6--------6-6-5h6-<-(x2)--5~--6---6--6-6-5h6--<-(x2)----|
F|-7~-------7-----7-7-7----<<-------5~-----5--5-5-5----<<---------|
C|----------------------------------------------------------------|
G|----------------------------------------------------------------|
C|----------------------------------------------------------------|x4

(3:11-4:13) Guitar 1&2
D|--------------8-----5----0-----|    |-(On the 3rd time, then repeat x3---|
A|----------------6-----6--------|    |------------------------------------|
F|------------------7-----7------|    |-10---------12----------------------|
C|--0---00-7---0~----------------|    |--x-(x8)-----x(x8)-----------------|
G|--0---00-5---0~----------------|    |--8---------10----------------------|
C|--0---00-----0~----------------|x3  |------------------------------------|
PM      ..


(4:13-4:28)(4:36-4:51) Guitar 1
D|----------------------------------------------------|
A|--6-66-----6-66-----6-6--5-55-----5-55-----5-55-----|
F|--7-77-----7-77-----7-7--7-77-----7-77-----7-77-----|
C|-------0-0------0-0-----------0-0------0-0----------|
G|-------0-0------0-0-----------0-0------0-0----------|
C|-------0-0------0-0-----------0-0------0-0----------|x2
PM       . .      . .           . .      . .

(4:28-4:36)(4:51-4:59) Guitar 1
D|-----------------------------------------------------|
A|--5-55-----5-55-----5-5s10-10-10-----8-8-----8-8-----|
F|--5-55-----5-55-----5-5s10-10-10-----9-9-----9-9-----|
C|-------0-0------0-0--------------0-0-----0-0---------|
G|-------0-0------0-0--------------0-0-----0-0---------|
C|-------0-0------0-0--------------0-0-----0-0---------|
PM       . .      . .              . .     . .

[ Tab from: http://www.guitaretab.com/m/misc-unsigned-bands/105982.html ]
(4:59-5:14)(5:22-5:37) Guitar 1
D|----------------------------------------------------|
A|----------------------------------------------------|
F|--7-77-----7-77-----7-7--3-33-----3-33-----3-33-----|
C|--x-xx-0-0-x-xx-0-0-x-x--x-xx-0-0-x-xx-0-0-x-xx-----|
G|--5-55-0-0-5-55-0-0-5-5--1-11-0-0-1-11-0-0-1-11-----|
C|-------0-0------0-0-----------0-0------0-0----------|x2
PM       . .      . .           . .      . .

(4:59-5:14)(5:22-5:37) Guitar 2
D|----------------------------------------------------|
A|----------------------------------------------------|
F|----------------------------------------------------|
C|--7-77-0-0-7-77-0-0-7-7--3-33-0-0-3-33-0-0-3-33-----|
G|--5-55-0-0-5-55-0-0-5-5--1-11-0-0-1-11-0-0-1-11-----|
C|-------0-0------0-0-----------0-0------0-0----------|x2
PM       . .      . .           . .      . .


(5:15-5:22)(5:37-5:45) Guitar 1
D|----------------------------------------------------------|
A|----------------------------------------------------------|
F|--5-55-----5-55-----5-5510-1010-----9--9-----9-9---------|
C|--x-xx-0-0-x-xx-0-0-x-xx--x-x-x--0-0-x--x-0-0-x-x---------|
G|--3-33-0-0-3-33-0-0-3-33--8-8-8-0-0-7--7-0-0-7-7---------|
C|-------0-0------0-0--------------0-0------0-0-------------|
PM       . .      . .              . .      . .

(5:15-5:22)(5:37-5:45) Guitar 2
D|-----------------------------------------------------------|
A|-----------------------------------------------------------|
F|--5-55-----5-55-----5-5510-1010------9--9-----9-9---------|
C|--5-55-0-0-5-55-0-0-5-55-10-1010--0-0-x--x-0-0-x-x---------|
G|--3-33-0-0-3-33-0-0-3-33--8--8-8-0-0-7--7-0-0-7-7---------|
C|-------0-0------0-0---------------0-0------0-0-------------|
PM       . .      . .               . .      . .
(5:45-5:49)Guitar 1
D|---------------------|
A|--6-6-6--------------|
F|--7-7-7--------------|
C|---------0-0---------|
G|---------0-0---------|
C|---------0-0---------|x3
PM         . .

(5:49-6:50)Guitar 1&2
D|----------------------------------------------------|
A|----------------------------------------------------|
F|-10----------------------------------7--------------|
C|--0--------8--------10-------7-------7(x16)--------|
G|--0-(x16)--8-(x16)-10-(x8)--7-(x8)--5--------------|
C|--0--------8--------10-------7----------------------|x4


(6:50-6:58)Guitar 1&2
D|----------------|
A|----------------|
F|------7---------|
C|--0---7(x8)----|
G|--0---5---------|
C|--0-------------|x4
PM  .

(6:58-7:00) Guitar 1
D|----------------------|
A|--6-6---6-6-6-6-------|
F|--7-7---7-7-7-7-------|
C|------0---------0-----|
G|------0---------0-----|
C|------0---------0-----|
PM      .         .

(7:02-7:12) Guitar 1&2
D|------------------------------|
A|------------------------------|
F|------------------------------|
C|--0000-0-000~---0-000~--------|
G|--0000-0-000~---0-000~--------|
C|--0000-0-000~---0-000~--------|x3
PM  .... . ...    . ...

(7:12-7:16) Guitar 1&2
D|----------------------------|
A|----------------------------|
F|----------------------------|
C|--0000-0-000---0-000--------|
G|--0000-0-000---0-000--------|
C|--0000-0-000---0-000--------|
PM  .... . ...   . ...
Related for Gwen Stacy - Sleeping In The Train Yard tab