Song name
# A B C D E F G H I J K L M N O P Q R S T U V W X Y Z

Misc Unsigned Bands - Soundlight - It Doesnt Matter tab

MUSIC:MIKE/DAVE/ALAN (SDL)
Solo to follow
INTRO
  rvrb.
  lt.rng
E--------]
B--------]
G--------]
D--7~~~~~]
A--5~~~~~]
E--------]
VERSE
  p.m
E------------------------------------------------------------------|
B------------------------------------------------------------------|
G------------------------------------------------------------------|
D--7-7-7-7-7-7-7-7>5-5-5-5-5-5-5-5---------------------------------|
A--5-5-5-5-5-5-5-5>3-3-3-3-3-3-3-3-5-5-5-5-5-5-5-5-----------------|
E----------------------------------3-3-3-3-3-3-3-3-4-3-4-3-4-3-4---|  (x3)
BRIDGE
  p.m
E------------------------------------------------------------------|
B------------------------------------------------------------------|
G------------------------------------------------------------------|
D--7-7-7-7-7-7-7-7>9-9-9-9-9-9-9-9---------------------------------|
A--5-5-5-5-5-5-5-5>7-7-7-7-7-7-7-7>3-3-3-3-3-3-3-3-3-3-3-3-3-3-3-3-|
E----------------------------------1-1-1-1-1-1-1-1-1-1-1-1-1-1-1-1-|
CHORUS
  p.m
E------------------------------------------------------------------|
B------------------------------------------------------------------|
G--9-9-9-9-9-9-9-9<5-5-5-5-5-5-5-5---------------------------------|
D--7-7-7-7-7-7-7-7<3-3-3-3-3-3-3-3-9-9-9-9-9-9-9-9-9-9-9-9-9-9-9-9-|
A----------------------------------7-7-7-7-7-7-7-7-7-7-7-7-7-7-7-7-|
E------------------------------------------------------------------|  (x4)
BREAKDOWN (verse 3)
   lt.rng. (10 bars)
   fd.bck.
E-------------------]-----------------------]
B-------------------]-----------------------]
G-------------------]-----------------------]
D--7----------------]7-7-7-7-7-7-7-7-7-7-7-7]
A--5----------------]5-5-5-5-5-5-5-5-5-5-5-5]
E-------------------]-----------------------]
Tap to rate this tab
# A B C D E F G H I J K L M N O P Q R S T U V W X Y Z