Song name
# A B C D E F G H I J K L M N O P Q R S T U V W X Y Z

Misc Unsigned Bands - Choked By Society - All I Ever Wanted tab

-------------------------------------------------------------------------------
			     all i ever wanted- choked by society
-------------------------------------------------------------------------------
Tabbed by:hacker34
Email:amorzinski@yahoo.com

Tuning:standard

e|-------------------------------------------------------------------------------------|
B|-------------------------------------------------------------------------------------|
G|-------0---------0-------0--------0---0----------------------------------------------|
D|-----0--0------0--0-----2--0-----2---2-----------------------------------------------|
A|---2-----0---0-----0--2-----0---3---3------------------------------------------------|
E|-3---------2---------0--------0----0-------------------------------------------------|
Tap to rate this tab
# A B C D E F G H I J K L M N O P Q R S T U V W X Y Z