Song name
# A B C D E F G H I J K L M N O P Q R S T U V W X Y Z

Misc Unsigned Bands - Minions Of Shamus - Shamus tab

This song is so funny lyrically

e---------------------------|
b---------------------------|
g--15p13-14p12-13p11-12p10--|
D---------------------------| x4
A---------------------------|
D---------------------------|

Verse: x2

e----------------------------------------------------------------------------|
b----------------------------------------------------------------------------|
g----------------------------------------------------------------------------|
D--5--------------5/7--------------7/9--------9/12--------------12/5---------|
A--5--------------5/7--------------7/9--------9/12--------------12/5---------|
D--5-555555555555-5/7-777777777777-7/9-999999-9/12-121212121212-12/5-5555555-|
    PM...........    PM...........    PM.....    PM............    PM.......

Chorus: x3

e---------------------------------------------------------------------|
b---------------------------------------------------------------------|
g-------------------4-4-4-4-4-4-4-4-----------------------------------|
D--2-2-2-2-2-2-2-2--4-4-4-4-4-4-4-4--4-4-4-4-4-4-4-4--0-0-0-0-0-0-0-0-|
A--2-2-2-2-2-2-2-2--2-2-2-2-2-2-2-2--4-4-4-4-4-4-4-4--0-0-0-0-0-0-0-0-|
D--2-2-2-2-2-2-2-2-------------------4-4-4-4-4-4-4-4--0-0-0-0-0-0-0-0-|

Solo w/ Wah-Wah

e--15~---15p14p13p12---------------------------------------------------------|
b-------------------15p14p13p12----------------------------------------------|
g------------------------------15p14p13p12~~13141516131415161314151613141516-|
D----------------------------------------------------------------------------|
A----------------------------------------------------------------------------|
D----------------------------------------------------------------------------|

e---------------------------------------------------------------------------|
b---------------------------------------------------------------------------|
g--1213141511121314101112139101112891011789106789567845673456---------------|
D---------------------------------------------------------------------------|
A---------------------------------------------------------------------------|
D---------------------------------------------------------------------------|

e---------------------------------------------------------------------------|
b---------------------------------------------------------------------------|
g--7t5p3-7t5p3-7t5p3-7t5p3-7t5p3-7t5p3-7t5p3-7t5p3-9t5p3-9t7p5-9t7p5-9t7p5--|
D---------------------------------------------------------------------------|
A---------------------------------------------------------------------------|
D---------------------------------------------------------------------------|

e---------------------------------------------------------------------------|
b---------------------------------------------------------------------------|
g--9t7p5-9t7p5-9t7p5-9t7p5-9t7p5-12t7p5-12t9p7-12t9p7-12t9p7-12t9p7-12t9p7--|
D---------------------------------------------------------------------------|
A---------------------------------------------------------------------------|
D---------------------------------------------------------------------------|

e---------------------------------------------------------------------------|
b---------------------------------------------------------------------------|
g--12t9p7-12t9p7-12t9p7-15t9p7-15t12p9-15t12p9-15t12p9-15t12p9-15t12p9------|
D---------------------------------------------------------------------------|
A---------------------------------------------------------------------------|
D---------------------------------------------------------------------------|

e---------------------------------------------------------------------------|
b---------------------------------------------------------------------------|
g--15t12p9-15t12p9-15t12p9-15t9p7-15t9p7-15t9p7-12t9p7-12t9p7-12t9p7--------|
D---------------------------------------------------------------------------|
A---------------------------------------------------------------------------|
D---------------------------------------------------------------------------|

e----------------------------------------------------------------------------|
b----------------------------------------------------------------------------|
g-12t7p5-12t7p5-12t7p5-9t7p5-9t7p5-9t7p5-9t5p3-9t5p3-9t5p3-7t5p3-7t5p3-7t5p3-|
D----------------------------------------------------------------------------|
A----------------------------------------------------------------------------|
D----------------------------------------------------------------------------|

e----------------------------------------------|
b---------------------------------7vvvvvvvv----|
g--7t3p1-7t3p1-7t3p1-7t3p1-7t3p1---------------|
D----------------------------------------------|
A----------------------------------------------|
D----------------------------------------------|

Shamus Chant

e------------------------------------------------|
b------------------------------------------------|
g------------------------------------------------|
D--12--12--12/9--9--9--9/7--7--7--7/5--5--5--5---|
A--12--12--12/9--9--9--9/7--7--7--7/5--5--5--5---|
D--12--12--12/9--9--9--9/7--7--7--7/5--5--5--5---|

Chorus

Outro

e-----------------------------------|
b-----------------------------------|
g-----------------------------------|
D--0-0-0-0-0-0-0-0--5-3-0-3-5-0-0---|
A--0-0-0-0-0-0-0-0--5-3-0-3-5-0-0---|
D--0-0-0-0-0-0-0-0--5-3-0-3-5-0-0---|
Tap to rate this tab
# A B C D E F G H I J K L M N O P Q R S T U V W X Y Z