Guitaretab - guitar tabs
Song name
# A B C D E F G H I J K L M N O P Q R S T U V W X Y Z

Misc Unsigned Bands - Shot Down Sun - Lethargy tab

-------------------------------------------------------------------------------
			     -Lethargy - Shot Down Sun-
                                 -The Human Design-
-------------------------------------------------------------------------------
Tabbed by: Alec Swadel
Email: Alecswadel@yahoo.com

Tuning: Drop C


D|------------------------------------------------------------------|
A|------------------------------------------------------------------|
F|------------------------------------------------------------------|
C|-0-----7---7h8---------8---8p7---8-------------5------------------|
G|-0-5-0---0-----0-0-5-0---0-----0-8-0-8-0-8p7-0-5-0-5-0-5p3--------|
C|-0-0-0---0-----0-0---0---0-----0-8-0---0-----0-5-0---0------------|
   x   x   x     x x   x   x     x   x   x     x   x   x  

D|------------------------------------------------------------------|
A|------------------------------------------------------------------|
F|----------------------1010-\-9-----7-7-\-5------------------------|
C|--------------------8-x--x-\-x-0-5-x-x-\-x------------------------|
G|-0-0-0-0-0-0-0-0--0-8-8--8-\-7-0-5-5-5-\-3------------------------|
C|-0-0-0-0-0-0-0-0--0-8----------0-5--------------------------------|
   x x x x x x x x  x            x

D|------------------------------------------------------------------|
A|------------------------------------------------------------------|
F|--------------------------------1010-\-9---7-7-\-5----------------|
C|------------------------------8-x--x-\-x-5-x-x-\-x----------------|
G|-0-0-0--0-0-0--0-0-0--0-0-0-0-8-8--8-\-7-5-5-5-\-3----------------|
C|-0-0-0--0-0-0--0-0-0--0-0-0-0-8----------5------------------------|
   x x x  x x x  x x x  x x x x

D|------------------------------------------------------------------|
A|------------------------------------------------------------------|
F|------------------------------------------------------------------|
C|-0~--8~--5~--0~----8-------------5--------------------------------|
G|-0~--8~--5~--0~--0-8-0-8-0-8p7-0-5-0-5-0-5p3----------------------|
C|-0~--8~--5~--0~--0-8-0---0-----0-5-0---0--------------------------|
                   x   x   x     x   x   x

D|------------------------------------------------------------------|
A|------------------------------------------------------------------|
F|------------------------------------------------------------------|
C|-0-----7---7h8---------8---8p7---8-------------5------------------|
G|-0-5---------------5-------------8---8---8p7---5---5---5p3--------|
C|-0-0-0---0-----0-0---0---0-----0-8-0---0-----0-5-0---0------------|
   x   x   x     x x   x   x     x   x   x     x   x   x  
[ Tab from: http://www.guitaretab.com/m/misc-unsigned-bands/106062.html ]
D|------------------------------------------------------------------|
A|------------------------------------------------------------------|
F|------------------------------------------------------------------|
C|-0--0-0--0-0-0---0--0-0--0-0-0--0--0-0-0-0-0-0-0-0--0--0-0--0-0-0-| 
G|-0--0-0--0-0-0---0--0-0--0-0-0--0--0-0-0-0-0-0-0-0--0--0-0--0-0-0-|
C|-0--0-0--0-0-0---0--0-0--0-0-0--0--0-0-0-0-0-0-0-0--0--0-0--0-0-0-|
   x  x x  x x x   x  x x  x x x  x  x x x x x x x x  x  x x  x x x

D|------------------------------------------------------------------|
A|------------------------------------------------------------------|
F|------------------------------------------------------------------|
C|------------------------------------------------------------------|
G|-000-888-777-888-101010-888-777-888-------------------------------|
C|------------------------------------------------------------------|


D|------------------------------------------------------------------|
A|------------------------------------------------------------------|
F|------------------------------------------------------------------|
C|------------------------------------------------------------------|
G|-000-888-777-888-101010-888-777-555-------------------------------|
C|------------------------------------------------------------------|


D|------------------------------------------------------------------|
A|------------------------------------------------------------------|
F|------------------------------------------------------------------|
C|-0-8-7-8-10-8-7--0-8-7-8-10-8-7-5---------------------------------|
G|-0-8-7-8-10-8-7--0-8-7-8-10-8-7-5---------------------------------|
C|-0-8-7-8-10-8-7--0-8-7-8-10-8-7-5---------------------------------|


D|------------------------------------------------------------------|
A|------------------------------------------------------------------|
F|------------------------------------------------------------------|
C|-0~--0-0-0~---0~--0-0-0~------------------------------------------|
G|-0~--0-0-0~---0~--0-0-0~------------------------------------------|
C|-0~--0-0-0~---0~--0-0-0~------------------------------------------|
   x   x x x    x   x x x

D|------------------------------------------------------------------|
A|------------------------------------------------------------------|
F|------------------------------------------------------------------|
C|------------------------------------------------------------------|
G|-000-888-777-888-101010-888-777-888-------------------------------|
C|------------------------------------------------------------------|


D|------------------------------------------------------------------|
A|------------------------------------------------------------------|
F|------------------------------------------------------------------|
C|------------------------------------------------------------------|
G|-000-888-777-888-101010-888-777-555-------------------------------|
C|------------------------------------------------------------------|



| /  slide up
| \  slide down
| h  hammer-on
| p  pull-off
| ~  vibrato
| *  harmonic
| x  palm mute
===============================================================================
Related for Shot Down Sun - Lethargy tab
Advertisement will be closed in 10 seconds