Song name
# A B C D E F G H I J K L M N O P Q R S T U V W X Y Z

Misc Unsigned Bands - Civil Krisis - Into The Sky tab

"Into the Sky" by Civil Krisis

Tabbed by: Nick McCreary
Email: Nizzle303@yahoo.com

Tuning: Standard
Guitar: Clean

INTRO
e|---------------------------------------12-9--------------------------------|
B|--------------------------12-----------12-9-9------------------------------|
G|-------------------9----9-11b12----9(V)-----11b12-9------------------------|
D|-------------------9h11p9-------11-----------------------------------------|
A|----7/9\7--9-10h11---------------------------------------------------------|
E|-0-0-----------------------------------------------------------------------|

VERSE 1
e|---------------------------------------------------------------------------|
B|---------------------------------------------------------------------------|
G|-9-9-9-9-9-----------------------------------------------------------------|
D|-9-9-9-9-9-9-9-9-9-9-7-7-7-7-7---------------------------------------------|
A|-7-7-7-7-7-9-9-9-9-9-7-7-7-7-7---------------------------------------------|
E|-----------7-7-7-7-7/5-5-5-5-5---------------------------------------------|

GUITAR RIFF 1
e|------------12----12-------------------------------------------------------|
B|------------12h14-12\9-----------------------------------------------------|
G|-9--------9------------11b12-11p9--9-9(V)----------------------------------|
D|-9--------9----------------------11----------------------------------------|
A|-7-9-10h11-----------------------------------------------------------------|
E|---------------------------------------------------------------------------|

VERSE 2
e|---------------------------------------------------------------------------|
B|---------------------------------------------------------------------------|
G|-7h9-9-9-xx----------------------------------------------------------------|
D|-7h9-9-9-xx-9-9-9-7-7-7-77777----------------------------------------------|
A|-7---7-7-xx-9-9-9-7-7-7-77777----------------------------------------------|
E|------------7-7-7\5-5-5-55555----------------------------------------------|


CHORUS
e|---------------------------------------------------------------------------|
B|---------------------------------------------------------------------------|
G|-9-9-9-9-9-9---------------------------------------------------------------|
D|-9-9-9-9-9-9-7-7-7-7-7-7-9-9-9-9-9-9-7-7-7-7-7-7---------------------------|
A|-7-7-7-7-7-7-7-7-7-7-7-7-9-9-9-9-9-9-7-7-7-7-7-7---------------------------|
E|-------------5-5-5-5-5-5-7-7-7-7-7-7-5-5-5-5-5-5---------------------------|

GUITAR SOLO SOLO
e|---------------------------------------14b15-12-------------------------------|
B|------------14(V)-12-------12-------12----------14(V)\12(V)\9(V)--------------|
G|----------9----------11h13----11h13------------------------------8h9-8-6------|
D|----------9-------------------------------------------------------------------|
A|-7/9h10h11--------------------------------------------------------------------|
E|------------------------------------------------------------------------------|

e|---------------------------------------------------------------------------|
B|---------------------------------5/7\5-------------------------------------|
G|-4------------------------4----6-------6p4---4(V)------9-11-11b-11b-9------|
D|--6-4h6p4-------4(V)-4h6-6-6-4-------------6------9-11---------------------|
A|----------7-4-7------------------------------------------------------------|
E|---------------------------------------------------------------------------|

e|-12----12------------------------------------------------------------------|
B|-12h14-12---12h14---12h14--12h14--12h14-12\9-9-----------------------------|
G|----------13------13-----13-----13------------11-9---9~~~~~----------------|
D|---------------------------------------------------11----------------------|
A|---------------------------------------------------------------------------|
E|---------------------------------------------------------------------------|

VERSE 3 AND VERSE 4
e|---------------------------------------------------------------------------|
B|---------------------------------------------------------------------------|
G|-9---9---------------------------------------------------------------------|
D|-9--9--9-9--9-7-7--7-------------------------------------------------------|
A|-7-7---9-9-9--7-7-7--------------------------------------------------------|
E|-------7-77---5-55---------------------------------------------------------|

ENDING RIFF
e|------------12----12-----------------------0~~~~~--------------------------|
B|------------12h14-12\9---------------------0~~~~~--------------------------|
G|-9--------9------------11b12-11p9--9-9(V)--1~~~~~--------------------------|
D|-9--------9----------------------11--------2~~~~~--------------------------|
A|-7-9-10h11---------------------------------2~~~~~--------------------------|
E|-------------------------------------------0~~~~~--------------------------|

Intro

VERSE 1
When I'm so high above
My normal state of mind
I want to kiss
anything that comes my way

Guitar Riff

VERSE 2
And I'm not afraid of sayin'
what i think
when you try and
push me around

because...
because...

CHORUS
I'm so far away
Into the sky
I'm so high...
I'm up to flyin away

Guitar Solo

VERSE 3
When you say
I don't like this
shit your doin
I say i don't give a damn
I'm gonna do it anyway

VERSE 4
The way you look at me
The things you say
If i wasn't in this state
If i wasnt so high
I'd say

CHORUS X2

ENDING RIFF

| /  slide up
| \  slide down
| h  hammer-on
| p  pull-off
| ~  Let it ring out
| +  harmonic
| x  Mute note
|(V)  Vibrate String
============================================================================
Tap to rate this tab
# A B C D E F G H I J K L M N O P Q R S T U V W X Y Z