Song name
# A B C D E F G H I J K L M N O P Q R S T U V W X Y Z

Misc Unsigned Bands - Noah Nauman - Eternally tab

Help us improve GuitareTab! Take a short survey!
tuning dadgad

this is 100% correct for the origional of this piece. ive changed it some since its 
but its not much different (maybe a note or two here and there)
intro
D-------0-------0-------0-------0-------0-------0-------0-------0-----------|
A---0-------0-------0-------0-------0-------0-------0-------0---------------|
G---------------------------------------------------------------------------|
D---------------------------------------------------------------------------|
A---------------------------------------------------------------------------|
D-0---0---0---0---2---2---2---2---3---3---3---3---5---5---5---5-------------|

repeat

D-------0-------0-------0-------0-------0-------0-------0-------0-----------|
A---0-------0-------0-------0-------0-------0-------0-------0---------------|
G---------------------------------------------------------------------------|
D-0---0---0---0-------------------------------------------------------------|
A-----------------2---2---2---2---3---3---3---3-----------------------------|
D-------------------------------------------------5---5---5---5-------------|

repeat

D-------0-------0-------0-------0-------0-------0-------0-------0-----------|
A---0-------0-------0-------0-------0-------0-------0-------0---------------|
G---------------------------------------------------------------------------|
D---------------------------------------------------------------------------|
A---------------------------------------------------------------------------|
D-0---0---0---0---2---2---2---2---3---3---3---3---5---5---5---5-------------|

D-------0-------0-------0-------0-------0-------0--0------------------------|
A---0-------0-------0-------0-------0-------0----0-0------------------------|
G--------------------------------------------------0------------------------|
D--------------------------------------------------0------------------------|
A-0---0---0---0---2---2---2---2---3---3---3---3----5------------------------|
D-0---0---0---0---2---2---2---2---3---3---3---3----5------------------------|

riff 1
                                        R  s          s     R  s
  / / /^ ^/          / / /^ ^/         /       /^ ^/       /       /^ ^
D-0---------------0--0--------------0--0--{12}-0-----------0--{12}-0---{12}-|
A-0------------------0-----------------0--{12}-0-----------0--{12}-0---{12}-|
G-6---------11/12----4-----------------0--{12}-0-----------0--{12}-0---{12}-|
D-7------------------5-----------------0-------0-----{12}--0-------0---{12}-|
A-7------------------5----------7/9----0-------0-----{12}--0-------0---{12}-|
D-7------------------5-----------------0-------0-----{12}--0-------0---{12}-|

repeat

riff 2
  / / /^               / / /^                  /  / /^             / / /^ ^/
D-0---------0-----0----0-----------0------0----0--0------0-----0---0--------|
A-0--------------------0-----------------------0--0----------------0--------|
G-0-----------9\7---7--0------11/12--11\9---7--0--4--------------9-6--------|
D-0------7/9-----------2-----------------------5--5----7---7/9-----7--------|
A-0--------------------2-----------------------5--5----------------7--------|
D-0--------------------2-----------------------5--5----------------7--------|

D-------0-------------------------------------------------------------------|
A---------------------------------------------------------------------------|
G-11/12---------------------------------------------------------------------|
D---------------------------------------------------------------------------|
A---------------------------------------------------------------------------|
D---------------------------------------------------------------------------|
repeat but 2nd time leave off last 11/12 0 and strum to next riff

riff 3
    R             L  R           L  R       R  s               R L s
   / / /^ ^/        / / /^ ^/      / / /^ ^/       / /^/^/ /^ ^
D--0--------------0-0------------0-0----------{12}-0-----0--------{12}------|
A--0----------------0--------------0----------{12}-0-----0--------{12}------|
G-/11---------------7--------------9----------{12}-0-----4--------{12}------|
D-/12-------15/17---9---------11---10--------------5-----5------------------|
A-/12---------------9--------------10--------------5-----5------------------|
D-/12---------------9--------------10--------------5-----5------------------|

repeat
riff 4
       L         L           L          L           L         L
  / /^ s   /^ ^/ s   /^/ /^  s   /^ ^/  s    /^/ /^ s   /^ ^/ s   /^//^^//^^
D-0---{12}-0---------0-0----{12}-0-----------0-0---{12}-0---------0-0---0---|
A-0---{12}-0---------0-0----{12}-0-----------0-0---{12}-0---------0-0---0---|
G-0---{12}-0---------0-0----{12}-0-----------0-0---{12}-0---------0-0---4---|
D-0--------0----{12}-0-2---------2------{12}-0-3--------3----{12}-0-5---5---|
A-0--------0----{12}-0-2---------2------{12}-0-3--------3----{12}-0-5---5---|
D-0--------0----{12}-0-2---------2------{12}-0-3--------3----{12}-0-5---5---|

repeat

riff 5
D-------0-------0-------0-------0-------0-------0-------0-------0-----------|
A---0-------0-------0-------0-------0-------0-------0-------0---------------|
G---------------------------------------------------------------------------|
D---------------------------------------------------------------------------|
A---------------------------------------------------------------------------|
D-0---0---0---0---2---2---2---2---3---3---3---3---5---5---5---5-------------|

repeat
        L       L       L       L       L       L        L       L
D-------0-------0-------0-------0-------0-------0--------0-------0----------|
A---0-------0-------0-------0-------0-------0--------0-------0--------------|
G---------------------------------------------------------------------------|
D---------------------------------------------------------------------------|
A-0---0---0---0---2---2---2---2---3---3---3---3----5---5---5---5------------|
D-0---0---0---0---2---2---2---2---3---3---3---3----5---5---5---5------------|

repeat

    L   L   L   L   L   L   L   L   L   L   L   L    L   L   L   L
D-------0-------0-------0-------0-------0-------0--------0-------0----------|
A---0-------0-------0-------0-------0-------0--------0-------0--------------|
G---------------------------------------------------------------------------|
D---------------------------------------------------------------------------|
A-0---0---0---0---2---2---2---2---3---3---3---3----5---5---5---5------------|
D-0---0---0---0---2---2---2---2---3---3---3---3----5---5---5---5------------|

repeat

the ending is kinda tough to tab so its gonna be like this
finger placement of the left hand {fret to tap for harmonics with right hand} i.e. L{R} 
 also slap the sixth string with your thumb to get a "tick" along with the note

D---------------------------------------------------------------------------|
A---------------------------------------------------------------------------|
G-2{12}~ --4{14}---5{12}---5{12}--------------------------------------------|
D----------------------------------4{14}---5{12}---5{12}--------------------|
A---------------------------------------------------------------------------|
D---------------0-------0-------0-------0-------0-------0-------------------|

repeat three times then on the fourth time it goes

D---------------------------------------------------------------------------|
A---------------------------------------------------------------------------|
G----------4{14}---5{12}---5{12}--------------------------------------------|
D----------------------------------4{14}---5{12}---5{12}--------------------|
A--------------------------------------------------5{12}--------------------|
D----------------0-------0-------0-------0-------0-5{12}--------------------|

order -               L - left hand slap on guitar body
intro                 R - right hand slap on guitar body
riff 1                s - slap harmonics
riff 2                / - down strum
riff 3                ^ - up strum
riff 2                {#} - fret to slap harmonics on
riff 4
riff 1
riff 2
riff 3
riff 5
riff 4
riff 1
ending
Related for Noah Nauman - Eternally tab