Song name
# A B C D E F G H I J K L M N O P Q R S T U V W X Y Z

Misc Unsigned Bands - Civil Krisis - The Ganja Takin Over Me tab

Help us improve GuitareTab! Take a short survey!
Civil Krisis- "The Ganja takin over me"
Tabbed by: Nick McCreary
Email:Nizzle303@yahoo.com

Tuning: Standard

Verses: Clean
Chorus: Distortion optional

INTRO
e|---------------2h3p2---2------------------------------0-2-0-0--------------|
B|--2h3p2---2-------------------------1------2h3p2---2--2-3-1-2--------------|
G|------------------------------------------------------2-2-0-2--------------|
D|-------------0-------0------0h2-2---------------------2-0-2-2--------------|
A|-0------0-----------------3-------3-----00-------0----0---3-0--------------|
E|---------------------------------------------------------------------------|

VERSES (Reggae up-strokes)
e|-5--7--3--5----------------------------------------------------------------|
B|-5--7--3--5----------------------------------------------------------------|
G|-6--7--4--6----------------------------------------------------------------|
D|-7-----5--7----------------------------------------------------------------|
A|---------------------------------------------------------------------------|
E|---------------------------------------------------------------------------|

CHORUS (Regular strokes)
e|---------------------------------------------------------------------------|
B|---------------------------------------------------------------------------|
G|-----7---------------------------------------------------------------------|
D|-7-5-7---------------------------------------------------------------------|
A|-7-5-5---------------------------------------------------------------------|
E|-5-3-----------------------------------------------------------------------|

GUITAR FILL
e|-5-5-----5-------5----------------3-3----3--------3--5-5------5h7p5--------|
B|-5---5-----5--------7-7----7------3---3----3---------5---5------------5----|
G|-6------------------7---7----7----4------------------6---------------------|
D|-7-----7-----7-7----7-----7----7--5-----5-----5-5----7------7-------7------|
A|---------------------------------------------------------------------------|
E|---------------------------------------------------------------------------|

e|--------------------3-3-----3h5p3-5--3-3-----------------------------------|
B|-7-7-----7h8p7---7--3---3---------5--3-3-----------------------------------|
G|-7---7--------------4-------------6--4-4-----------------------------------|
D|-7-----7-------7----5-----5-------7--5-5-----------------------------------|
A|---------------------------------------------------------------------------|
E|---------------------------------------------------------------------------|

GUITAR SOLO
e|---------------------------------------------------10b--8------------8-----|
B|----------------------------------8/10(V)-10\8-8----------10-8h10-10---8---|
G|----------------------5(V)-----------------------9-------------------------|
D|-7(V)-7777-55-----5h7------7-7(V)------------------------------------------|
A|--------------5h7----------------------------------------------------------|
E|---------------------------------------------------------------------------|

e|---------------------------------------------------------------------------|
B|---------------------------------------------------------------------------|
G|-7b-7b-5---------8h10---8h10---8h10---8h10---8(V)-9-7-5--------5-----------|
D|-------5h7(V)--9------9------9------9------9------------7--5h7---7---------|
A|---------------------------------------------------------------------------|
E|---------------------------------------------------------------------------|

When the ganja takes over
Everything is better
The way that you feel
Cannot be beat, by anything

Yeah i got the 89 vision
Actin so stoopid, na na
The haze is comin over me
Better than a fucking birthday

The way i feel
It makes me horny
Gonna pick up a 40 and a ho

CHORUS X2
Cuzz this is the way
I live my life
If you hate then 
You gonna get knocked down

Fill

The way I feel
Got a 40 in the left hand
Got a fat J in the right

Please sir, why don't you
Roll me a spliff
I'll toke it up again right now

Guitar Solo ends song

| /  slide up
| \  slide down
| h  hammer-on
| p  pull-off
| ~  vibrato
| +  harmonic
|(V) Vibrate Strings
| x  Mute note
===============================================================================
Related for Civil Krisis - The Ganja Takin Over Me tab