Song name
# A B C D E F G H I J K L M N O P Q R S T U V W X Y Z

Misc Unsigned Bands - Its Over Baby - Tmbmod tab

-------------------------------------------------------------------------------

	       it's over baby - the strangers we become
-------------------------------------------------------------------------------
Tabbed by:ALEX K.AKA:SLASHER
Email:MBMODBAND@YAHOO.COM


| /  slide up
| \  slide down
| h  hammer-on
| p  pull-off
| ~  vibrato
| +  harmonic
| x  Mute note
| w  wammy
| T  twice
=======================================================================

intro

e|-------------------------------|
B|-------------------------------|
G|-------------------------------|
D|-4-4-4-4-4-4-4-4-4-4-4-4-------|
A|-5-5-5-5-5-5-5-5-5-5-5-5-------|
E|-4-4-4-4-4-4-4-4-4-4-4-4-------|

main 1
e|-------------------------------|
B|-------------------------------|
G|-------------------------------|
D|-2-2-2-2-2-2-3-3-3-3-3-3-2-2-2-|
A|-1-1-1-1-1-1-2-2-2-2-2-2-1-1-1-|
E|-2-2-2-2-2-2-3-3-3-3-3-3-2-2-2-|


i was out one day and i say her with anothere

guy then when she came home that night i said

e|-------------------------------|
B|-------------------------------|
G|-------------------------------|
D|-1-1-1-2-2-2-3-3-3-2-1-1-2-2-3-|
A|-2-2-2-3-3-3-4-4-4-3-2-2-3-3-4-|
E|-1-1-1-2-2-2-3-3-3-2-1-1-2-2-3-|


that its over and she were like what do you mean

I know you're messin around baby so guess what

	ITS OVER ITS OVER


e|-------------------------------|
B|-------------------------------|
G|-------------------------------|
D|-2-2-2-2-2-2-3-3-3-3-3-3-2-2-2-|
A|-1-1-1-1-1-1-2-2-2-2-2-2-1-1-1-|
E|-2-2-2-2-2-2-3-3-3-3-3-3-2-2-2-|


I CAINT DEAL WITH ALL YOUR LIES IM SICK OF THEM

SO IM SAYING NOW ITS OVER ITS OVER BYE

WHEN WE WERE TOGETHER I LOVED HER WITH A

PASSION BUT THAT DAY THAT I SAW HER WITH HIM

e|-------------------------------|
B|-------------------------------|
G|-------------------------------|
D|-1-1-1-2-2-2-3-3-3-2-1-1-2-2-3-|
A|-2-2-2-3-3-3-4-4-4-3-2-2-3-3-4-|
E|-1-1-1-2-2-2-3-3-3-2-1-1-2-2-3-|


I KNEW THAT I HAD TO END IT FOR GOOD UNLESS

I WANT TO SIT THERE AND JUST TACK IT BUT

   NO THAT WOULD BE really STUPID


solo
e|-------------------------------|
B|-------------------------------|
G|-------------------------------|
D|-1-1-1-1-2-2-2-2-3-3-3-3-1-2-3-|
A|-0-0-0-0-0-0-0-0-0-0-0-0-0-0-0-|
E|-1-1-1-1-2-2-2-2-3-3-3-3-1-2-3-|


e|----------------------------------|
B|----------------------------------|
G|----------------------------------|
D|----------------------------------|
A|-2-2-2-3-3-3-4-4-4-3-3-3-2-2-2----|
E|-1-1-1-2-2-2-3-3-3-2-2-2-1-1-1----|


main 2
e|-------------------------------|
B|-------------------------------|
G|-------------------------------|
D|-2-2-2-2-2-2-3-3-3-3-3-3-2-2-2-|
A|-1-1-1-1-1-1-2-2-2-2-2-2-1-1-1-|
E|-2-2-2-2-2-2-3-3-3-3-3-3-2-2-2-|


so many tears i've cried so much pain iside

ITS OVER BABY ITS OVER LEAVE ITS OVER

I never woulda thought we'd be breakin'up like this

but it's over now ITS OVER


e|-------------------------------------|
B|-------------------------------------|
G|-------------------------------------|
D|-------------------------------------|
A|-------------------------------------|
E|-6-5-4-3-2-1-0-2-1-0-----------------|

hold its over baby
Tap to rate this tab
# A B C D E F G H I J K L M N O P Q R S T U V W X Y Z