Song name
# A B C D E F G H I J K L M N O P Q R S T U V W X Y Z

Misc Unsigned Bands - Jason Bastin - Lullaby tab

Intro/Verse 1:
e---------------------------------------------------------|x2
b---------------------------------------------------------|o
g--3--2---0h2---2--2-----------3--2---0h2---2-----2--0----|
d---------------------2--0h2-------------------3----------|
a------------------3--3--3---------------------1--3--3----|o
E--3--1--1----1----------------3--1--1----1---------------|

Chorus:
e--1---1--1-1-1-1-1-1---3---3--3-3-3-3-3-3---1--1-1-1-1-1-1---1--1-1-1-1-1-|
b--1---1--1-1-1-1-1-1---5---3--3-3-3-3-3-3---3--3-3-3-3-3-3---1--1-1-1-1-1-|
g--2---2--2-2-2-2-2-2---5---4--4-4-4-4-4-4---3--3-3-3-3-3-3---2--2-2-2-2-2-|
d--3---3--3-3-3-3-3-3---5---5--5-5-5-5-5-5---3--3-3-3-3-3-3---3--3-3-3-3-3-|
a--3---3--3-3-3-3-3-3---3---5--5-5-5-5-5-5---1--1-1-1-1-1-1---3--3-3-3-3-3-|
E--1---1--1-1-1-1-1-1---3---3--3-3-3-3-3-3---1--1-1-1-1-1-1---1--1-1-1-1-1-|

-1-1----------1--------|x2
-1-1----------1--------|o
-2-2----------1h2------|
-3-3----------1h3------|
-3-3------1h3-1h3------|o
-1-1--1h3-----1--------|

Verse 2:
e-1--1-1-1-1---------------3--3-3-3-3----------------1--1-1-1-1--------------|
b-1--1-1-1-1---------------3--3-3-3-3----------------3--3-3-3-3--------------|
g-2--2-2-2-2---------------4--4-4-4-4-----3h5p3------3--3-3-3-3----3---------|
d-3--3-3-3-3-----3h5p3-----5--5-5-5-5-3s5-------5p3--3--3-3-3-3-3s5--5p3s1s3-|
a-3--3-3-3-3-3s5------5p3--5--5-5-5-5----------------1--1-1-1-1--------------|
E-1--1-1-1-1---------------3--3-3-3-3----------------1--1-1-1-1--------------|

-1--1-1-1-1----------1------|x2
-1--1-1-1-1----------1------|o
-2--2-2-2-2----------1h2----|
-3--3-3-3-3----------1h3----|
-3--3-3-3-3------1h3-1h3----|o
-1--1-1-1-1--1h3-----1------|
Tap to rate this tab
 
# A B C D E F G H I J K L M N O P Q R S T U V W X Y Z