Song name
# A B C D E F G H I J K L M N O P Q R S T U V W X Y Z

Misc Unsigned Bands - The Reckless Life - Boring Road tab

Intro

E|-------------------------------------------------|
B|-------------------------------------------------|
G|-------------------------------------------------|
D|---------------------------------------------2---|
A|---2-----4-----2-----4-----2-----4-----2-------4-|
E|-4---4-4---4-2---2-2---2-0---0-0---0-2---2-2-----|

Verse

E|-------------------------------------------------|
B|-------------------------------------------------|
G|-------------------------------------------------|
D|---------------------------------------------2---|
A|---2-----4-----2-----4-----2-----4-----2-------4-|
E|-4---4-4---4-2---2-2---2-0---0-0---0-2---2-2-----|
   .   . .   . .   . .   . .   . .   . .   . .

Chorus

E|--------------------------------------------------|
B|-5(x16)----------------------5(x16)---------------|
G|-4(x16)-6(x16)---------------4(x16)-6(x16)-4(x16)-|
D|-2(x16)-6(x16)-4(x16)-6(x16)-2(x16)-6(x16)-4(x16)-|
A|--------4(x16)-4(x16)-6(x16)--------4(x16)-2(x16)-|
E|---------------2(x16)-4(x16)----------------------|

Order to Play:
Intro
Verse
Chorus
Verse
Chorus
Verse

Key:
.     Palm-Mute
(x16) Play previous Note/Chord 16 times

Notes:
There is a Bass solo in this song, but for that you need to check out the BASS tab.
Tap to rate this tab
# A B C D E F G H I J K L M N O P Q R S T U V W X Y Z