Song name
# A B C D E F G H I J K L M N O P Q R S T U V W X Y Z

Misc Unsigned Bands - Civil Krisis - Sensi tab

Help us improve GuitareTab! Take a short survey!
----------------------------------------------------------------------------
			     Sensi - Civil Krisis
----------------------------------------------------------------------------
Tabbed by:Nick McCreary
Email: Nizzle303@yahoo.com

Tuning:Drop D

INTRO
e|---------------------------------------------------------------------------|
B|---------------------------------------------------------------------------|
G|---------------------------------------------------------------------------|
D|------2p0----4h5p4------7--5---4(V)----5h7p5-4-----------4h5p4-------------|
A|-----------------------------------------------4h5-----5-------4h5---------|
E|-0-00-----00-------0-00--0---0-----0-0------0------0-0---------------------|

e|---------------------------------------------------------------------------|
B|---------------------------------------------------------------------------|
G|---------------------------------------------------------------------------|
D|-0-0-000-0-0-00-4-4-444-4-4-44-5-5-555-5-5-55-0-0-00-0-0-202420~~~---------|
A|-0-0-000-0-0-00-4-4-444-4-4-44-5-5-555-5-5-55-0-0-00-0-0-202420~~~---------|
E|-0-0-000-0-0-00-4-4-444-4-4-44-5-5-555-5-5-55-0-0-00-0-0-202420~~~---------|

VERSES
CHORUS- Same Chords and same progression but feel it and make it your own
e|---------------------------------------------------------------------------|
B|---------------------------------------------------------------------------|
G|---------------------------------------------------------------------------|
D|-0-----4-----5-----0-0-00-0-02020------------------------------------------|
A|-0-x16-4-x16-5-x15-0-0-00-0-02020------------------------------------------|
E|-0-----4-----5-----0-0-00-0-02020------------------------------------------|

GUITAR CHANGE/FILL
e|---------------------------------------------------------------------------|
B|---------------------------------------------------------------------------|
G|---------------------------------------------------------------------------|
D|-0-000-4-444-555-2-222-555554----------------------------------------------|
A|-0-000-4-444-555-2-222-555554----------------------------------------------|
E|-0-000-4-444-555-2-222-555554----------------------------------------------|

OPTIONAL SOLO
e|-------------------10/12-12-12-10--12-10-9h10p9-9-10-12-10-9-10-12-10------|
B|---------------------------------12----------------------------------------|
G|-/7-7-7--7-9b-9b-7---------------------------------------------------------|
D|-------9-------------------------------------------------------------------|
A|---------------------------------------------------------------------------|
E|---------------------------------------------------------------------------|

e|-9-10-12-10-9-10-12-10\7---------------------------------------------------|
B|-------------------------10-7----------------------------------------------|
G|------------------------------9-7-9b-9b-9p7---7(V)-------------------------|
D|--------------------------------------------7------------------------------|
A|---------------------------------------------------------------------------|
E|---------------------------------------------------------------------------|


INTRO

VERSE 1
I never complain
With the company of Mary Jane
She serves me well

VERSE 2
With that flame
I get merry
As i light up the cherry

CHORUS x2
I Smoke the Sensi
It's so good to me
As I toke up

VERSE 3
As i smoke the dro
I never know
What will happen next...

Guitar Change/Fill

CHORUS

Optional Solo

INTRO Again

| /  slide up
| \  slide down
| h  hammer-on
| p  pull-off
| ~  vibrato
| +  harmonic
| x  Mute note
===============================================================================
Related for Civil Krisis - Sensi tab