Song name
# A B C D E F G H I J K L M N O P Q R S T U V W X Y Z

Misc Unsigned Bands - Civil Krisis - Wise Men Smoke tab

----------------------------------------------------------------------------
			     Wise men Smoke - Band Name
----------------------------------------------------------------------------
Tabbed by:Nick McCreary
Email:Nizzle303@Yahoo.com

Tuning: Standard

INTRO
e|---------------------------------------------------------------------------|
B|---------------------------------------------------------------------------|
G|-7~~~--4-6--7~~~-4-6-7~~~-4-6-7~~~-----------------------------------------|
D|---------------------------------------------------------------------------|
A|---------------------------------------------------------------------------|
E|-7~~~--3-5--7~~~-3-5-7~~~-3-5-7~~~-----------------------------------------|

VERSES
e|-2-2-2-2-3-3-3-3-5-5-5-5-2-2-2-2-------------------------------------------|
B|-3-3-3-3-3-3-3-3-5-5-5-5-3-3-3-3-------------------------------------------|
G|-4-4-4-4-4-4-4-4-6-6-6-6-4-4-4-4-------------------------------------------|
D|-4-4-4-4-5-5-5-5-7-7-7-7-4-4-4-4-------------------------------------------|
A|-2-2-2-2-5-5-5-5-7-7-7-7-2-2-2-2-------------------------------------------|
E|---------3-3-3-3-5-5-5-5---------------------------------------------------|


Yeah the wiseman told me
You smoke the sensi
You best be aware
And live carefully

Because the man 
With the flashin lights
Don't play around
With one false move
He'll take you down

Then he said
Roll me a spliff
Ima toke up 
with the prophet

The wiseman told me
You need to live life
Like you'll die tomorrow

The wiseman's name
was Mr. Jane
The prophet of sense, sensimilla

And he said 
You must smoke
Or you be the fool

Don't let the man 
put you down
You must not mess around

You call 187
On the po po
Yeah they coming, na na

The fool in this world
Is the men 
Who say no Ganja

Cuzz a little ganja
Never hurt no one


| /  slide up
| \  slide down
| h  hammer-on
| p  pull-off
| ~  vibrato
| +  harmonic
| x  Mute note
===============================================================================
Tap to rate this tab
# A B C D E F G H I J K L M N O P Q R S T U V W X Y Z