Song name
# A B C D E F G H I J K L M N O P Q R S T U V W X Y Z

Misc Unsigned Bands - Disturbed Equ4librium - No Title Yet tab

A Disturbed Equ4librium Song

Tuning EADG(bass)  EADGBE(guitar)


VERSE(CLEAN):

Gtr 1
|---------------------------------------|-----------------------------------------|
|--3----3--5po3---3---7----7---8--8h10--|--3----3---5po3---3---7----7---5----5----|
|----0---0-----0---0----0---0---0-------|----0---0------0---0----0---0----0---0---|
|---------------------------------------|-----------------------------------------|
|--3--3---3-----3---3-7--7---7---7------|--3--3---3------3---3-7--7---7----7---7--|
|---------------------------------------|-----------------------------------------|

Gtr 2
|--0------------------0-----------------|--0-------------------0------------------|
|--0------------------0-----------------|--0-------------------0------------------|
|--0--12X-------------0--12X------------|--0--12X--------------0--12X-------------|
|--5------------------9-----------------|--5-------------------9------------------|
|--3------------------7-----------------|--3-------------------7------------------|
|--0------------------0-----------------|--0-------------------0------------------|

Bass
|---------------------------------------|-----------------------------------------|
|---------------------4--------5--------|----------------------4--------2---------|
|--3-------3----------------------------|--3--------3-----------------------------|
|---------------------------------------|-----------------------------------------|


CHORUS (CLEAN):

Gtr 1 & 2
|--2------------------3----------------|--3---------------------------------------|
|--3------------------3----------------|--3---------------------------------------|
|--0--12X-------------0--12X-----------|--0--24X----------------------------------|
|--0------------------2----------------|--2---------------------------------------|
|--x------------------2----------------|--3---------------------------------------|
|--3------------------0----------------|--x---------------------------------------|

Bass
|--------------------------------------|------------------------------------------|
|--------------------------------------|------------------------------------------|
|--------------------------------------|--33333333333333333333-333333332h3333po2--|
|--333333333333333333-0000000000000000-|----------------------------------------3-|

BRIDGE (HVY DISTORTION):

Gtr 1
|---------------------15~~~~~~-15/17---|
|--15~~~~~~~~~~~~~~~~------------------|
|--------------------------------------|
|--------------------------------------|
|--------------------------------------|
|--------------------------------------|

Gtr 2
|--3------------------x--------x-------|
|--3------------------x--------x-------|
|--5--12X-------------x--6X----x--6X---|
|--5------------------5--------4-------|
|--3------------------5--------5-------|
|--3------------------3--------2-------|

Bass
|--------------------------------------|
|--------------------------------------|
|--333333333333333333------------------|
|---------------------33333333-2222222-|
Tap to rate this tab
# A B C D E F G H I J K L M N O P Q R S T U V W X Y Z