Guitaretab - guitar tabs
Song name
# A B C D E F G H I J K L M N O P Q R S T U V W X Y Z

Misc Unsigned Bands - Christer Ellenberger - Ill Never Turn My Back tab

Highlighted       Show chord diagrams
I'll Never Turn My Back - Christer Ellenberger

Capo 3
d = down stroke
u = up stroke

Intro:

    C                             Am 
    d  d u  u d u  d  d u  u d u  d  d u  u d u  d  d u  u d u  
e|--0--0-0--0-0-0--0--0-0--0-0-0--0--0-0--0-0-0--0--0-0--0-0-0---------------|
B|--1--1-1--1-1-1--1--1-1--1-1-1--1--1-1--1-1-1--1--1-1--1-1-1---------------|
G|--0--0-0--0-0-0--0--0-0--0-0-0--2--2-2--2-2-2--2--2-2--2-2-2---------------|
D|--2--2-2--2-2-2--2--2-2--2-2-2--2--2-2--2-2-2--2--2-2--2-2-2---------------|
A|--3--3-3--3-3-3--3--3-3--3-3-3--0--0-0--0-0-0--0--0-0--0-0-0---------------|
E|--0--0-0--0-0-0--0--0-0--0-0-0--0--0-0--0-0-0--0--0-0--0-0-0---------------|

  Fmaj7                    F      Am
    d  d u  u d u  d  d u  d d u  d  d u  u d u  d  d u  u d u  
e|--0--0-0--0-0-0--0--0-0--1-1-1--0--0-0--0-0-0--0--0-0--0-0-0---------------|
B|--1--1-1--1-1-1--1--1-1--1-1-1--1--1-1--1-1-1--1--1-1--1-1-1---------------|
G|--2--2-2--2-2-2--2--2-2--2-2-2--2--2-2--2-2-2--2--2-2--2-2-2---------------|
D|--3--3-3--3-3-3--3--3-3--3-3-3--2--2-2--2-2-2--2--2-2--2-2-2---------------|
A|--0--0-0--0-0-0--0--0-0--3-3-3--0--0-0--0-0-0--0--0-0--0-0-0---------------|
E|--0--0-0--0-0-0--0--0-0--1-1-1--0--0-0--0-0-0--0--0-0--0-0-0---------------|

Verse:

C
I want to fly up there
Am
with all the other people
Fmaj7                F         Am
itís not as fun here on the ground.

C
You came to ask me if Iíve
Am
become a better person.
Fmaj7               F        Am
Ask tomorrow if Iím still around

Choros:

C/g
Iíll never turn my back 
       Fmaj7/g    
on the things that I believe in
C/g                      
Ill always stand by the songs 
           Am
that Iíve sung.

C/g
I know it looks like 
         Fmaj7/g
I am the only one thatís leaviní
C/g
But keep your mind 
                 Am
on the victories won.

Verse:

C
My mind is lost and I
Am
Donít know where itís goiní
Fmaj7                   F         Am
But thatís okay cause I canít be found

C
You said that time could heal
Am
But I donít believe thatís workiní
Fmaj7                 F       Am
Iím on the verge of breaking down

Choros:

C/g
Iíll never turn my back 
       Fmaj7/g
on the things that I believe in
C/g                      
Ill always stand by the songs
           Am 
that Iíve sung.

C/g
I know it looks like 
         Fmaj7/g
I am the only one thatís leaviní
C/g
But keep your mind 
                 Am
on the victories won.


Solo:

   C                       Fmaj7  C                       Fmaj7
   d d d d d d d d d d d d d  d   d d d d d d d d d d d d d  d
e|-0-----0-----0-----0-----0--0---0-----0-----0-----0-----0--0---------------|
B|-1-1-1-1-1-1-1-1-1-1-1-1-1--1---1-1-1-1-1-1-1-1-1-1-1-1-1--1---------------|
G|-0-0-0-0-0-0-0-0-0-0-0-0-2--2---0-0-0-0-0-0-0-0-0-0-0-0-2--2---------------|
D|-2-2-2-2-2-2-2-2-2-2-2-2-3--3---2-2-2-2-2-2-2-2-2-2-2-2-3--3---------------|
A|-3-3-3-3-3-3-3-3-3-3-3-3-0--0---3-3-3-3-3-3-3-3-3-3-3-3-0--0---------------|
E|-0-----0-----0-----0-----0--0---0-----0-----0-----0-----0--0---------------|
[ Tab from: http://www.guitaretab.com/m/misc-unsigned-bands/106229.html ]
   Am                      C      Am                      C
   d d d d d d d d d d d d d  d   d d d d d d d d d d d d d  d
e|-0-----0-----0-----0-----0--0---0-----0-----0-----0-----0--0---------------|
B|-1-1-1-1-1-1-1-1-1-1-1-1-1--1---1-1-1-1-1-1-1-1-1-1-1-1-1--1---------------|
G|-2-2-2-2-2-2-2-2-2-2-2-2-0--0---2-2-2-2-2-2-2-2-2-2-2-2-0--0---------------|
D|-2-2-2-2-2-2-2-2-2-2-2-2-2--2---2-2-2-2-2-2-2-2-2-2-2-2-2--2---------------|
A|-0-0-0-0-0-0-0-0-0-0-0-0-3--3---0-0-0-0-0-0-0-0-0-0-0-0-3--3---------------|
E|-0-----0-----0-----0-----0--0---0-----0-----0-----0-----0--0---------------|

   F                       g      F                       g
   d d d d d d d d d d d d d  d   d d d d d d d d d d d d d  d
e|-1-----1-----1-----1-----3--3---1-----1-----1-----1-----3--3---------------|
B|-1-1-1-1-1-1-1-1-1-1-1-1-3--3---1-1-1-1-1-1-1-1-1-1-1-1-3--3---------------|
G|-2-2-2-2-2-2-2-2-2-2-2-2-0--0---2-2-2-2-2-2-2-2-2-2-2-2-0--0---------------|
D|-3-3-3-3-3-3-3-3-3-3-3-3-0--0---3-3-3-3-3-3-3-3-3-3-3-3-0--0---------------|
A|-3-3-3-3-3-3-3-3-3-3-3-3-2--2---3-3-3-3-3-3-3-3-3-3-3-3-2--2---------------|
E|-1-----1-----1-----1-----3--3---1-----1-----1-----1-----3--3---------------|

   C                       Fmaj7  C                       Fmaj7
   d d d d d d d d d d d d d  d   d d d d d d d d d d d d d  d
e|-0-----0-----0-----0-----0--0---0-----0-----0-----0-----0--0---------------|
B|-1-1-1-1-1-1-1-1-1-1-1-1-1--1---1-1-1-1-1-1-1-1-1-1-1-1-1--1---------------|
G|-0-0-0-0-0-0-0-0-0-0-0-0-2--2---0-0-0-0-0-0-0-0-0-0-0-0-2--2---------------|
D|-2-2-2-2-2-2-2-2-2-2-2-2-3--3---2-2-2-2-2-2-2-2-2-2-2-2-3--3---------------|
A|-3-3-3-3-3-3-3-3-3-3-3-3-0--0---3-3-3-3-3-3-3-3-3-3-3-3-0--0---------------|
E|-0-----0-----0-----0-----0--0---0-----0-----0-----0-----0--0---------------|

Choros:

C/g
Iíll never turn my back 
       Fmaj7/g
on the things that I believe in
C/g                      
Ill always stand by the songs
           Am 
that Iíve sung.

C/g
I know it looks like 
         Fmaj7/g
I am the only one thatís leaviní
C/g
But keep your mind 
                 Am
on the victories won.

Outro:

   C                       Fmaj7  C                       Fmaj7 Am
   d d d d d d d d d d d d d  d   d d d d d d d d d d d d d  d  d
e|-0-----0-----0-----0-----0--0---0-----0-----0-----0-----0--0--0------------|
B|-1-1-1-1-1-1-1-1-1-1-1-1-1--1---1-1-1-1-1-1-1-1-1-1-1-1-1--1--1------------|
G|-0-0-0-0-0-0-0-0-0-0-0-0-2--2---0-0-0-0-0-0-0-0-0-0-0-0-2--2--2------------|
D|-2-2-2-2-2-2-2-2-2-2-2-2-3--3---2-2-2-2-2-2-2-2-2-2-2-2-3--3--2------------|
A|-3-3-3-3-3-3-3-3-3-3-3-3-0--0---3-3-3-3-3-3-3-3-3-3-3-3-0--0--0------------|
E|-0-----0-----0-----0-----0--0---0-----0-----0-----0-----0--0--0------------|



The Chords:
   C          Am         Fmaj7      F          C/g        Fmaj7/g    g
e|-0----------0----------0----------1----------3----------3----------3-------|
B|-1----------1----------1----------1----------1----------1----------3-------|
G|-0----------2----------2----------2----------0----------2----------0-------|
D|-2----------2----------3----------3----------2----------3----------0-------|
A|-3----------0----------0----------3----------3----------0----------2-------|
E|-0----------0----------0----------1----------0----------0----------3-------|
Related for Christer Ellenberger - Ill Never Turn My Back tab