Song name
# A B C D E F G H I J K L M N O P Q R S T U V W X Y Z

Misc Unsigned Bands - The Bulletboys - Smooth Up In Ya tab

http://www.myspace.com/officialbulletboys

I found this on some other site,becuase I was looking for it myself.I actually look here 
UG first,but couldnt find one so I figured I'd put it up on here.I'm not sure how 
this is,because I did not tab it.
also,if anyone would be cool enough to label what parts of the tab are what parts of the 
appreciate it.
------------------------------
Song:Smooth Up In Ya
Artist:BulletBoys
Written By:M.Sweda,M.Torien,L.Vincent,J.D'Anda
Album:BulletBoys
Tuning:Standard
Contributed By Dan Zane

 (E A D G B E)
 Intro
|--------------||------------5-5-|------|
|--------------||------------5-5-|------|
|------------2-||-(2)--------2-2-|------|
|------------2-||-(2)--------2-2-|------|
|------------0-||-(0)--------0-0-|------|
|--------------||----------------|------|

|-----------2-2-|----------|-----------5-5-|
|-3---------3-3-|----------|-----------5-5-|
|-0---------2-2-|----------|-2---------2-2-|
|-0---------0-0-|----------|-2---------2-2-|
|---------------|----------|-0---------0-0-|
|-3-------------|----------|---------------|

|----------|-----------2-2-|----------------------------------|
|----------|-3---------3-3-|-------7b8r(7)p5-7b8r(7)p5-7-5----|
|----------|-0---------2-2-|-------7b8r(7)p5-7b8r(7)p5-7-5----|
|----------|-0---------0-0-|-------------------------------7--|
|----------|---------------|----------------------------------|
|----------|-3-------------|----------------------------------|

||------------5-5-|----------|-----------2-2-|
||o-----------5-5-|----------|-3---------3-3-|
||--2---------2-2-|----------|-0---------2-2-|
||--2---------2-2-|----------|-0---------0-0-|
||o-0---------0-0-|----------|---------------|
||----------------|----------|-3-------------|

|----------|-----------5-5-|-(5)----|
|----------|-----------5-5-|-(5)----|
|----------|-2---------2-2-|-(2)----|
|----------|-2---------2-2-|-(2)----|
|----------|-0---------0-0-|-(0)----|
|----------|---------------|--------|

|------2----|----------2--||-(2)------2----|
|-3----3----|----3-----3--||-(3)------3----|
|-0----2----|-2--0-----2--||-(2)------2--2-|
|-0----0----|-2--0--4--0--||-(0)------0--2-|
|-----------|-0-----4-----||-------------0-|
|-3---------|----3--2-----||---------------|

|----------------2-|-(2)-----------|------------2---|
|----------------3-|-(3)-----------|---------3--3---|
|-(2)------------2-|-(2)-----------|---------0--2---|
|-(2)------------0-|-(0)-----------|---------0--0---|
|-(0)--------------|---------------|-2-2-2-2--------|
|------------------|----------17\--|-0-0-0-0-3------|

|-----------------------------|---------------------------|
|-----------7-7-7---------5-5-|-5-------------------7-5---|
|-2---------7-7-7---------5-5-|-5---------4-4-4-----7-5---|
|-2---------7-7-7---------5-5-|-5---------5-5-5-----7-5---|
|-0-0-0-0-0-------0-0-0-0-----|---0-0-0-0-------0-0-------|
|-----------------------------|---------------------------|

|------------------------------|-------------------||
|------------7-7-7---------5-5-|-5---------3------o||
|-h2---------7-7-7---------5-5-|-5---------0-------||
|-h2---------7-7-7---------5-5-|-5---------0-------||
|--0-0-0-0-0-------0-0-0-0-----|---0-0-0----------o||
|------------------------------|-----------3-------||

|------------------------------|
|------------7-7-7---------5-5-|
|-h2---------7-7-7---------5-5-|
|-h2---------7-7-7---------5-5-|
|--0-0-0-0-0-------0-0-0-0-----|
|------------------------------|

|--------------------|-------------------------------|
|-5------------------|-------------7-7-7---------5-5-|
|-5----------7--7--2-|-(2)---------7-7-7---------5-5-|
|-5----------4--5--2-|-(2)---------7-7-7---------5-5-|
|---0-0------------0-|-(0)-0-0-0-0-------0-0-0-0-----|
|-------17\----------|-------------------------------|

|--------------------------|
|-5-------------------7-5--|
|-5---------4-4-4-----7-5--|
|-5---------5-5-5-----7-5--|
|---0-0-0-0-------0-0------|
|--------------------------|

|------------------------------|----------------------|
|------------7-7-7---------5-5-|-5--------------------|
|-h2---------7-7-7---------5-5-|-5---------0--0----2--|
|-h2---------7-7-7---------5-5-|-5---------0--0----2--|
|--0-0-0-0-0-------0-0-0-0-----|---0-0-------------0--|
|------------------------------|-------17\-3--3-------|

|----------------|------------------|----------|-----------|
|----------------|------10--8-(8)-7-|-8--------|-7----8----|
|-(2)------(2)/--|-------9--7-(7)-7-|-7--------|-7----7----|
|-(2)------(2)---|------------------|----------|-----------|
|-(0)------------|------------------|----------|-----------|
|----------------|------------------|----------|-----------|

|------------------------12-|-17\-----------------|----------|-----------|
|-10----(10)-10-10-10-10-10-|-17------10--8-(8)-7-|-8--------|-7----8----|
|--9-----(9)--9--9--9--9--9-|----------9--7-(7)-7-|-7--------|-7----7----|
|---------------------------|---------------------|----------|-----------|
|---------------------------|---------------------|----------|-----------|
|---------------------------|---------------------|----------|-----------|

 Guitar Solo
  Gtr I
|-----16-16-15-16-------16-16-15-16--|------16-16----------14-----12-10--|
|-----15-15-14-15-------15-15-14-15--|------15-15----------13-----12-10--|
|-/16-16-16-15-16---/16-16-16-15-16--|-/16--16-16s15-15s14-14-/13----11--|
|------------------------------------|-----------------------------------|
|------------------------------------|-----------------------------------|
|------------------------------------|-----------------------------------|

|-15p12h15--------12-----12-------12----------------------------|
|----------14tr15-----14----14-15----14-15-14-15-12-------------|
|---------------------------------------------------13-12-11b13-|
|---------------------------------------------------------------|
|---------------------------------------------------------------|
|---------------------------------------------------------------|

|-----------------------------------------------|
|--------------------------------------12h14b15-|
|----------11-13-13b14r(13)p11-13-(13)----------|
|------/14--------------------------------------|
|-----------------------------------------------|
|-----------------------------------------------|

|-----16-16-15-16-------16-16-15-16--|
|-----15-15-14-15-------15-15-14-15--|
|-/16-16-16-15-16---/16-16-16-15-16--|
|------------------------------------|
|------------------------------------|
|------------------------------------|

|-/16--16-16-/17-17-17-/18-18-18-19-19-(19)\------16-|
|-/15--15-15-/16-16-16-/17-17-17-18-18-(18)\---17----|
|-/16--16-16-/17-17-17-/18-18-18-19-19-(19)\---------|
|----------------------------------------------------|
|----------------------------------------------------|
|----------------------------------------------------|

|-17-16p15----------------------------------------------------------------|
|----------17p16p15-17p16p15p14-16p15-------15p14-------------------------|
|-------------------------------------16p15-------15p14-16p15p14----------|
|----------------------------------------------------------------17-14----|
|----------------------------------------------------------------------17-|
|-------------------------------------------------------------------------|

|--------------------------------------------|
|-----12-14-14-12-14pb15r(14)p12-14-12-(12)--|
|-----12-14-14-12-14pb15r(14)p12-14-12-(12)--|
|--------------------------------------------|
|--------------------------------------------|
|--------------------------------------------|

|----------------------------------|--------------------------------|
|---8b10r==(8)p5-------------------|--------------------5-5---5-5---|
|----------------7b9r(7)p5-5-7-5b7r|=(5)----------------5-5---5-5---|
|----------------------------------|-----7-------7\---------7-----7-|
|----------------------------------|--------------------------------|
|----------------------------------|--------------------------------|

|-------------------------------------|-----------------------------|
|-------------------------------------|-----------------------------|
|-------------4---5---7b9r(7)p==5---7-|-(7)-----(7)\--9s7-7s5-[5]---|
|-(7)---5---7---------------------7---|-----------------------------|
|-------------------------------------|-----------------------------|
|-------------------------------------|-----------------------------|

|-----------------------------|------------------------------|
|-8s10-10-10---10-10s8-8-8-8--|-7h8p7h8p7h8p7h8h10p8p7-------|
|-----------------------------|------------------------h9-9--|
|-----------------------------|------------------------------|
|-----------------------------|------------------------------|
|-----------------------------|------------------------------|

|-17-------------------------------20-----|
|----20b24======(20)-(20)-20----------19--|
|-----------------------------------------|
|-----------------------------------------|
|-----------------------------------------|
|-----------------------------------------|

|---------------------------------------------------------------------||
|----20-19-17-19b20r(19)p17-19-17----------17-19b20r(19)p17--19b20-19-||
|-17----------19b20r(19)p17-19-17----------17-19b20r(19)p17--19b20-19-||
|------------------------------------19-17----------------------------||
|---------------------------------------------------------------------||
|---------------------------------------------------------------------||

|-----------------------|
|-(19)----19p17-17------|
|-(19)----19p17-17------|
|-----------------------|
|-----------------------|
|------------------x\---|

|----------------2-|-(2)-----------|
|----------------3-|-(3)-----------|
|--2-------------2-|-(2)-----------|
|--2-------------0-|-(0)-----------|
|--0---------------|---------------|
|------------------|----------17\--|

|-------------------------------------------------------------------------|
|-------------------------------------------------------------------------|
|----------------------------------------------12-14-12-------15-14-12-14-|
|----------------------------12-14----12-14-16----------16-14-------------|
|----------12-14----12-14-15-------15-------------------------------------|
|-12-14-15-------15-------------------------------------------------------|

|--------------------------12----------------12-14-15-12-15-17-17b19-----||
|----12-13-14--15-12-14-15----14-15-12-14-15-----------------------------||
|-15---------------------------------------------------------------------||
|------------------------------------------------------------------------||
|------------------------------------------------------------------------||
|------------------------------------------------------------------------||

Out-Chorus
|-------------------------------|--------------------------|
|-------------7-7-7---------5-5-|-5-------------------7-5--|
|-(2)---------7-7-7---------5-5-|-5---------4-4-4-----7-5--|
|-(2)---------7-7-7---------5-5-|-5---------5-5-5-----7-5--|
|-(0)-0-0-0-0-------0-0-0-0-----|---0-0-0-0-------0-0------|
|-------------------------------|--------------------------|

|------------------------------|---------------------|
|------------7-7-7---------5-5-|-5-------------------|
|-h2---------7-7-7---------5-5-|-5---------7--7--2---|
|-h2---------7-7-7---------5-5-|-5---------4--5--2---|
|--0-0-0-0-0-------0-0-0-0-----|---0-0-----------0---|
|------------------------------|-------17\-----------|

||--------------------------------|--------------------------|
||o-------------7-7-7---------5-5-|-5-------------------7-5--|
||--(2)---------7-7-7---------5-5-|-5---------4-4-4-----7-5--|
||--(2)---------7-7-7---------5-5-|-5---------5-5-5-----7-5--|
||o-(0)-0-0-0-0-------0-0-0-0-----|---0-0-0-0-------0-0------|
||--------------------------------|--------------------------|

|------------------------------|---------------------|
|------------7-7-7---------5-5-|-5-------------------|
|-h2---------7-7-7---------5-5-|-5---------7--7--2---|
|-h2---------7-7-7---------5-5-|-5---------5--4--2---|
|--0-0-0-0-0-------0-0-0-0-----|---0-0-----------0---|
|------------------------------|-------17\-----------|

|-------------------------------|--------------------------|
|-------------7-7-7---------5-5-|-5-------------------7-5--|
|-(2)---------7-7-7---------5-5-|-5---------4-4-4-----7-5--|
|-(2)---------7-7-7---------5-5-|-5---------5-5-5-----7-5--|
|-(0)-0-0-0-0-------0-0-0-0-----|---0-0-0-0-------0-0------|
|-------------------------------|--------------------------|

|------------------------------|----------------------||
|------------7-7-7---------5-5-|-5-------------------o||
|-h2---------7-7-7---------5-5-|-5---------7--7--2----||
|-h2---------7-7-7---------5-5-|-5---------4--4--2----||
|--0-0-0-0-0-------0-0-0-0-----|---0-0-----------0---o||
|------------------------------|-------17\------------||
Tap to rate this tab
 
# A B C D E F G H I J K L M N O P Q R S T U V W X Y Z