Song name
# A B C D E F G H I J K L M N O P Q R S T U V W X Y Z

Misc Unsigned Bands - Benighted - Morning Afliction tab

|---------------------------------------------------------------------------|
|---------------------------------------------------------------------------|
|---------------------------------------------------------------------------|
|-----------------------------7---------------------------------------------|
|----7-9-10-9-7---------7-9-10--10-9-----7-9-10-9-7--------7-9-10--H--------|
|-0-7-----------10-0-0-7------------0-0-7----------10-0-0-7------0-3--------|

|------------------------------------------------------------------------|
|------------------------------------------------------------------------|
|------------------------------------------------------------------------|
|----------------------------------------------777777--------------------|
|----777-999999---777-101010101010---777-999999------101010-999----------|
|-000----------000----------------000------------------------------------|

|--------------------------------------------------------------------------------|
|--------------------------------------------------------------------------------|
|-----------------------------------------------10-9-7--9-7----------------------|
|----777-999999---777-101010101010---777-999999-------10---10-9------------------|
|--------------------------------------------------------------------------------|
|-000----------000----------------000--------------------------------------------|

|--------------------------------------------------------------------|
|--------------------------------------------------------------------|
|-----------------------------------------------H--------------------|
|-2-----2-----2--------------2-----2------------2--------------------|
|-2-X-X-2-X-X-2-X-X-3/6/3-2--2-X-X-2-X-X-6666-3----------------------|
|-0-X-X-0-X-X-0-X-X-1/4/1-0--0-X-X-0-X-X-4444-1----------------------|

|-----------------------------------------|
|-----------------------------------------|
|-----------------------------------------|
|-----------------------------------------|
|-77777-8-9-77777-8-9-77777-8-9-5-7-4-5---|
|-------6-7-------6-7-------6-7-3-5-2-3---|

|--------------------------------------------------------------------------|
|--------------------------------------------------------------------------|
|--------------------------------------------------------------------------|
|-----------------------------7---------------------------------------2----|
|----7-9-10-9-7---------7-9-10--10-9-----7-9-10-9-7--------7-9-10--H--2--22|
|-0-7-----------10-0-0-7------------0-0-7----------10-0-0-7------0-3--0----|

----------------------------|
----------------------------|
----------------------------|
--------------------------H-|
--------------------------5-|
-00-00-0000-00-0000-00-033--|

-----------------------------------------------------------------|
-----------------------------------------------------------------|
-----------------------------------------------------------------|
--2-0-5-3-2-0-5-3-2-0-5-3-2-0-3-5--------------------------------|
-----------------------------------------------------------------|
-----------------------------------------------------------------|


----------------------------------|
----------------------------------|
----------------------------------|
-2-0-5-3-2-0-5-3-2-0-2------------|
----------------------------------|
----------------------------------|
Tap to rate this tab
 
# A B C D E F G H I J K L M N O P Q R S T U V W X Y Z