Song name
# A B C D E F G H I J K L M N O P Q R S T U V W X Y Z

Misc Unsigned Bands - Black Tears - Follow Me tab

-------------------------------------------------------------------------------
			     Follow me -  by Black Tears
-------------------------------------------------------------------------------
Tabbed by: sjfactory 
Email:sjfactory@web.de

Tuning: Standard

INTRO:
Repeat this 4 times!
e|---------------------------------------------------------------------------|
B|---------------------------------------------------------------------------|
G|---------------------------------------------------------------------------|
D|-10-8----10-10-10-8-6---8-8-8------------6-4---6-6-6-----------------------|
A|------10--8--8--8-----8-6-6-6-6-4--6-6-6-----6-4-4-4-----------------------|
E|---------------------------------6-4-4-4-----------------------------------|

Strophe:

Repeat this 4 times!

e|---------------------------------------------------------------------------|
B|---------------------------------------------------------------------------|
G|---------------------------------------------------------------------------|
D|10-10-10-8-8-8-8-8-------6-6-6-6-6-----------------------------------------|
A|-8--8--8-6-6-6-6-6-6-6-6-4-4-4-4-4-----------------------------------------|
E|-------------------4-4-4---------------------------------------------------|

Refrain:

Repeat this 4 times!

e|---------------------------------------------------------------------------|
B|---------------------------------------------------------------------------|
G|---------------------------------------------------------------------------|
D|2-6-10-8-------------------------------------------------------------------|
A|2-6-10-8-------------------------------------------------------------------|
E|0-4--8-6-------------------------------------------------------------------|

Bridge:

Repeat this 4 times!

e|---------------------------------------------------------------------------|
B|---------------------------------------------------------------------------|
G|---------------------------------------------------------------------------|
D|--6--10-8------------------------------------------------------------------|
A|--4---8-6------------------------------------------------------------------|
E|---------------------------------------------------------------------------|

Order:
Intro
Strophe
Refrain
Strophe
Bridge
Strophe
Refrain 
Strophe



| /  slide up
| \  slide down
| h  hammer-on
| p  pull-off
| ~  vibrato
| +  harmonic
| x  Mute note
===============================================================================
Tap to rate this tab
# A B C D E F G H I J K L M N O P Q R S T U V W X Y Z