Song name
# A B C D E F G H I J K L M N O P Q R S T U V W X Y Z

Misc Unsigned Bands - Trinitys Fall - Blood Drained From The Flower tab

e|--------------------------3-------------0-----2----------------------------|
B|-2-----------0-------------------------------------------------------------|
G|---4-------4---4-------4-----4-------4-----4-----4-------------------------|
D|-----0---0-------0---0---------0---0---------------------------------------|
A|-------3-----------3-------------3-----------------------------------------|
E|---------------------------------------------------------------------------|


e|--------------------------3-------------0-----2----0----2------------------|
B|-2-----------0-------------------------------------------------------------|
G|---4-------4---4-------4-----4-------4-----4-----4----4----4---------------|
D|-----0---0-------0---0---------0---0---------------------------------------|
A|-------3-----------3-------------3-----------------------------------------|
E|---------------------------------------------------------------------------|


e|-------------------------------3----------------0----2---------------------|
B|-2--------------0----------------------------------------------------------|
G|---4-------4------4-------4-------4-------4-------4----4-------------------|
D|-----0---0---0------0---0---0-------0---0---0------------------------------|
A|-------3--------------3---------------3------------------------------------|
E|---------------------------------------------------------------------------|


e|-------------------------------3----------------0----2---0---2----2--------|
B|-2--------------0----------------------------------------------------------|
G|---4-------4------4-------4-------4-------4-------4----4---4---4--4--------|
D|-----0---0---0------0---0---0-------0---0---0------------------------------|
A|-------3--------------3---------------3------------------------------------|
E|---------------------------------------------------------------------------|

e|x1-x1-x1-x1-x1-x1-x1-x1----------------------------------------------------|
B|x3-x3-x3-x3-x3-x3-x3-x3---6--3--6--3--5------------------------------------|
G|----------------------------------------6--5-------------------------------|
D|---------------------------------------------------------------------------|
A|---------------------------------------------------------------------------|
E|---------------------------------------------------------------------------|


e|x1-x1-x1-x1-x1-x1-x1-x1----------------------------------------------------|
B|x3-x3-x3-x3-x3-x3-x3-x3---6--3--6--3-------5-------------------------------|
G|--------------------------------------6--5---------------------------------|
D|---------------------------------------------------------------------------|
A|---------------------------------------------------------------------------|
E|---------------------------------------------------------------------------|

Tap to rate this tab
# A B C D E F G H I J K L M N O P Q R S T U V W X Y Z