Song name
# A B C D E F G H I J K L M N O P Q R S T U V W X Y Z

Misc Unsigned Bands - Razor Red Noise - To Be Set Free tab

Help us improve GuitareTab! Take a short survey!
RAZOR RED NOISE
TO BE SET FREE
Drop D Tuning (D A D G B E)

INTRO
|--------------------||--------------------||--------------------||--------------------|
|--------------------||--------------------||--------------------||--------------------|
|---14-14------14----||---14-14------14----||---8-8------8-------||---8-8------8-------|   x2
|-0--------0---------||-0---------0--------||-0--------0---------||-0--------0---------|
|--------------------||--------------------||--------------------||--------------------|
|--------------------||--------------------||--------------------||--------------------|

INTRO PART 2
|--------------------||--------------------||--------------------||--------------------|
|--------------------||--------------------||--------------------||--------------------|
|--------------------||--------------------||--------------------||--------------------|
|--------------------||--------------------||--------------------||--------------------|   x2
|-----12---12---8----||-8---10---10---10---||-----12---12---8----||-8---3----3----5----|
|-----12---12---8----||-8---10---10---10---||-----12---12---8----||-8---3----3----5----|

VERSE
|--------------------||--------------------||--------------------||--------------------|
|--------------------||--------------------||--------------------||--------------------|
|---14-14------14----||---14-14------14----||---7-7------7-------||---7-7------7-------|   x2
|-0--------0---------||-0---------0--------||-0--------0---------||-0--------0---------|
|--------------------||--------------------||--------------------||--------------------|
|--------------------||--------------------||--------------------||--------------------|

PRECHORUS
|--------------------||--------------------||--------------------||--------------------|
|--------------------||--------------------||--------------------||--------------------|
|---14-14------14----||---14-14------14----||---8-8------8-------||---8-8------8-------|
|-0--------0---------||-0---------0--------||-0--------0---------||-0--------0---------|
|--------------------||--------------------||--------------------||--------------------|
|--------------------||--------------------||--------------------||--------------------|

CHORUS
|--------------------||--------------------||--------------------||--------------------|
|--------------------||--------------------||--------------------||--------------------|
|--------------------||--------------------||--------------------||--------------------|
|--------------------||--------------------||--------------------||--------------------|   x4
|-----12---12---8----||-8---10---10---10---||-----12---12---8----||-8---3----3----5----|
|-----12---12---8----||-8---10---10---10---||-----12---12---8----||-8---3----3----5----|

VERSE 2
|--------------------||--------------------||--------------------||--------------------|
|--------------------||--------------------||--------------------||--------------------|
|---14-14------14----||---14-14------14----||---7-7------7-------||---7-7------7-------|   x2
|-0--------0---------||-0---------0--------||-0--------0---------||-0--------0---------|
|--------------------||--------------------||--------------------||--------------------|
|--------------------||--------------------||--------------------||--------------------|

PRECHORUS 2
|--------------------||--------------------||--------------------||--------------------|
|--------------------||--------------------||--------------------||--------------------|
|---14-14------14----||---14-14------14----||---8-8------8-------||---8-8------8-------|
|-0--------0---------||-0---------0--------||-0--------0---------||-0--------0---------|
|--------------------||--------------------||--------------------||--------------------|
|--------------------||--------------------||--------------------||--------------------|

CHORUS 2
|--------------------||--------------------||--------------------||--------------------|
|--------------------||--------------------||--------------------||--------------------|
|--------------------||--------------------||--------------------||--------------------|
|--------------------||--------------------||--------------------||--------------------|   x4
|-----12---12---8----||-8---10---10---10---||-----12---12---8----||-8---3----3----5----|
|-----12---12---8----||-8---10---10---10---||-----12---12---8----||-8---3----3----5----|

BRIDGE
|--------------------||--------------------||--------------------||--------------------|
|--------------------||--------------------||--------------------||--------------------|
|--------------------||--------------------||--------------------||--------------------|
|--------------------||--------------------||--------------------||--------------------|   x4
|--0---0-0--3-3----5-||--5--5----8----8----||--0---0-0--3-3----5-||--5--5----1----1----|
|--0---0-0--3-3----5-||--5--5----8----8----||--0---0-0--3-3----5-||--5--5----1----1----|

FINAL CHORUS
|--------------------||--------------------||--------------------||--------------------|
|--------------------||--------------------||--------------------||--------------------|
|--------------------||--------------------||--------------------||--------------------|
|--------------------||--------------------||--------------------||--------------------|   x4
|-----12---12---8----||-8---10---10---10---||-----12---12---8----||-8---3----3----5----|
|-----12---12---8----||-8---10---10---10---||-----12---12---8----||-8---3----3----5----|

OUTRO
|--------------------||--------------------||--------------------||--------------------|
|--------------------||--------------------||--------------------||--------------------|
|---14-14------14----||---14-14------14----||---7-7------7-------||---7-7------7-------|
|-0--------0---------||-0---------0--------||-0--------0---------||-0--------0---------|
|--------------------||--------------------||--------------------||--------------------|
|--------------------||--------------------||--------------------||--------------------|

|--------------------||--------------------||--------------------||--------------------|
|--------------------||--------------------||--------------------||--------------------|
|---8-8------8-------||---8-8------8-------||-7---(let ring)-----||--------------------|
|-0--------0---------||-0---------0--------||-0---(let ring)-----||--------------------|
|--------------------||--------------------||--------------------||--------------------|
|--------------------||--------------------||--------------------||--------------------|
Related for Razor Red Noise - To Be Set Free tab