Song name
# A B C D E F G H I J K L M N O P Q R S T U V W X Y Z

Misc Unsigned Bands - Alestorm - Flower Of Scotland tab

Song: Flower of Scotland
Artist: Alestorm
Album: Captain Morgan's Revenge 


Intro
E|--5--5------------------5------------5--------------|
B|--------8--6---------6-----8---6--8-----------------|
G|--------------5---5---------------------------------|
D|----------------------------------------------------|
A|----------------------------------------------------|
E|----------------------------------------------------|


E|--5--6--5--6--8--------------------5--6--5----------|
B|-----------------6------8-8-8--6-8----------8--6----|
G|---------------------5----------------------------5-|
D|----------------------------------------------------|
A|----------------------------------------------------|
E|----------------------------------------------------|


E|--5--6--5-6--8-----5-6-5---5------------------------|
B|----------------6--------8----8--6--6-----8--6------|
G|---------------------------------------8------------|
D|----------------------------------------------------|
A|----------------------------------------------------|
E|----------------------------------------------------|

verse 1
E|--5---5----------------------------5------------------5----|
B|-----------8--6---------------6-------8----8---6---8-------|
G|---------------------5-----5-------------------------------|
D|-----------------------------------------------------------|
A|-----------------------------------------------------------|
E|-----------------------------------------------------------|
    O Flower of Scot-land. When will we see yer like a-gain

E|----5----6---5--6--8-------------------------------5---6---5----------------|
B|---------------------6----------8---8---8---6---8---------------8--6--------|
G|------------------------5---5--------------------------------------------5--|
D|----------------------------------------------------------------------------|
A|----------------------------------------------------------------------------|
E|----------------------------------------------------------------------------|
    that fought and died for yer wee bit hill and glen. and stood a-gainst him

E|--5-----6-5-6---8------5---6-5-----5--------------------------|
B|-------------------6-----------8------8--6-----6--------8-6---|
G|---------------------------------------------------8----------|
D|--------------------------------------------------------------|
A|--------------------------------------------------------------|
E|--------------------------------------------------------------|
   proud Edwards arm-y. and send him ho-me-ward tae think a-gain




verse 2 (same tune)

the hills are bare now and autumn leaves lie thick and still
o'er land is lost now which those so dearly held. that stood against him
proud Edwards arm-y. and send him homeward tae think again




verse 3

those days have past now. and in the past they must remain
but we can still rise now and be the nation again. that stood against him
proud Edwards arm-y. and send him homeward tae think again




verse 4
O Flower of Scotland. When will we see yer like again
that fought and died for yer wee bit hill and glen. and stood against him
proud Edwards arm-y. and send him homeward tae think again






outro
E|--5--5------------------5------------5--------------|
B|--------8--6---------6-----8---6--8-----------------|
G|--------------5---5---------------------------------|
D|----------------------------------------------------|
A|----------------------------------------------------|
E|----------------------------------------------------|

                       Starts fading out
E|--5--6--5--6--8--------------------5--6--5----------|
B|-----------------6------8-8-8--6-8----------8--6----|
G|---------------------5----------------------------5-|
D|----------------------------------------------------|
A|----------------------------------------------------|
E|----------------------------------------------------|


E|--5--6--5-6--8-----5-6-5---5------------------------|
B|----------------6--------8----8--6--6-----8--6------|
G|---------------------------------------8------------|
D|----------------------------------------------------|
A|----------------------------------------------------|
E|----------------------------------------------------|



well... i hope this is helpful to you all
most of the song was played on A natural minor

rock-on ben
Tap to rate this tab
# A B C D E F G H I J K L M N O P Q R S T U V W X Y Z