Song name
# A B C D E F G H I J K L M N O P Q R S T U V W X Y Z

Misc Unsigned Bands - Rockers Hearts - The Cold Times tab

Help us improve GuitareTab! Take a short survey!
As made as famous by Rockers Hearts / The Cold Times


~: Vibrato
/: Bend
\: Slide
h: Hammer on
P: Pull off
x: Bared Strings

Intro:

E---7-----|    E---6-----|     E---5-----|    
B--8-8----|    B--8-8----|     B--8-8----|     
G-9---9---| x4 G-9---9---| x3  G-9---9---| x3 (Repeat two times this set.)
D---------|    D---------|     D---------|     
A---------|    A---------|     A---------|     
E---------|    E---------|     E---------|



Intro Ending:

E---7-----|
B--8-8----|
G-9---9---| x3
D---------|
A---------|
E---------|


E-7----7-8------------------|
B----------7-8--------------|
G--------------7-8----------|
D------------------8-7----5~|
A---------------------------|
E---------------------------|


Verse 1

E--xxxx------xx-----xx-----xx-----------|
B--xxxx------xx-----xx-----xx-----------|
G--xxxx-9-9--xx-7-7-xx-5-5-xx-4----4----|
D--xxxx-9-9--xx-7-7-xx-5-5-xx-4----4----| x2
A--xxxx-7-7--xx-5-5-xx-3-3-xx-2----2----|
E--xxxx------xx-----xx-----xx-----------|


E--xxxx-------xx-------xx-------xx-------xx----------|
B--xxxx-------xx-------xx-------xx-------xx----------|
G--xxxx--9-9--xx-------xx--7-7--xx-------xx--5----5--|
D--xxxx--9-9--xx--7-7--xx--7-7--xx--5-5--xx--5----5--| x2
A--xxxx--7-7--xx--7-7--xx--5-5--xx--5-5--xx--3----3--|
E--xxxx-------xx--5-5--xx-------xx--3-3--xx----------|

Chorus:

D-D-xx-Am---Am-Am-Am-xxxx-| x2


Solo:

E-----------------------------------16-----16-----16-----16-18-18/-18-16-|
B--20-20/-18-18/-16-15-16-15-16-16/----16/----16/----16/-----------------|
G------------------------------------------------------------------------|
D------------------------------------------------------------------------|
A------------------------------------------------------------------------|
E------------------------------------------------------------------------|

E-18/-19/-16-18-16-19-16-18-16-19-16-18-16-19-16-18-16-19~|
B---------------------------------------------------------|
G---------------------------------------------------------|
D---------------------------------------------------------|
A---------------------------------------------------------|
E---------------------------------------------------------|


Verse 2:


E-------------------|
B-------------------|
G-0-0-0-2-3-5-3-2-0-| x3
D-------------------|
A-------------------|
E-------------------|

E--5-3-2----|
B-----------|
G-----------| x5 (Last with (0) at the end.)
D-----------|
A-----------|
E-----------|



Chorus:

D-D-xx-Am---Am-Am-Am-xxxx-| x2



Ending:

E---------------------|
B------0------0-----0-|
G----3------4-----6---| x3
D--1------2-----4-----|
A---------------------|
E---------------------|

E----------|
B------0---|
G----6-----| x3
D--4-------|
A----------|
E----------|
Related for Rockers Hearts - The Cold Times tab