Song name
# A B C D E F G H I J K L M N O P Q R S T U V W X Y Z

Misc Unsigned Bands - Wraith - Punkorama tab

-----------------------------------------------------------------------------
			     Punkorama - Wraith
-----------------------------------------------------------------------------
Tabbed by:Clancy 13


Tuning:

Riff 1
e|--------------------------------------------------------------------------|
B|--------------------------------------------------------------------------|
G|----0-0-000000--7-7-777777--10-10-101010101010--5-5-555555----------------|
D|----0-0-000000--7-7-777777--10-10-101010101010--5-5-555555----------------|
A|--------------------------------------------------------------------------|
E|--------------------------------------------------------------------------|

e|--------------------------------------------------------------------------|
B|--------------------------------------------------------------------------|
G|----0-0-000000--7-7-777777--10-10-101010101010--5-5-555555----------------|
D|----0-0-000000--7-7-777777--10-10-101010101010--5-5-555555----------------|
A|--------------------------------------------------------------------------|
E|--------------------------------------------------------------------------|

Riff 2
e|--------------------------------------------------------------------------|
B|--------------------------------------------------------------------------|
G|---0-0-000000--5-5-555555--8-8-888888--3-3-333333-------------------------|
D|---0-0-000000--5-5-555555--8-8-888888--3-3-333333-------------------------|
A|--------------------------------------------------------------------------|
E|--------------------------------------------------------------------------|

e|--------------------------------------------------------------------------|
B|--------------------------------------------------------------------------|
G|---0-0-000000--5-5-555555--8-8-888888--3-3-333333-------------------------|
D|---0-0-000000--5-5-555555--8-8-888888--3-3-333333-------------------------|
A|--------------------------------------------------------------------------|
E|--------------------------------------------------------------------------|

Basically the whole song except 4 my solos which i haven't tabbed yet
if u don't get the tune ill upload it soon

cya
cj
Tap to rate this tab
# A B C D E F G H I J K L M N O P Q R S T U V W X Y Z