Song name
# A B C D E F G H I J K L M N O P Q R S T U V W X Y Z

Misc Unsigned Bands - Smosh - Hardcore Max tab

Well i decided to make a new one because i messed up the first one pretty bad.And if you 
its in drop D because powerchords are MUCH easier.

Intro (When Guitar Enters)
|--------------------|
|--------------------|\
|--------------------| \ X 6 Times
|-7--7----10-10---8--| /
|-7--7----10-10---8--|/
|-7--7----10-10---8--|


---|-----------------------|
|---------------------|\---|
|--------------------------| \ Play This Riff Twice
|-7--7----10-10---5--6-----| /
|-7--7----10-10---5--6-----|
|-7--7----10-10---5--6-----|

Verse

|----------------------------------------------|
|----------------------------------------------|\
|----------------------------------------------| \ Play until Pre-Hardcore
|-7--7--7--5--5--7----7--5--7------------------| /
|-7--7--7--5--5--7----7--5--7----4----4--4--5--|/
|-7--7--7--5--5--7----7--5--7------------------|


HARDCORE-NESS!
(This Part Is Optional, If You Do Play, Play Along With The Bass)

|------------------------------------------------------------|
|------------------------------------------------------------|
|------------------------------------------------------------|
|-7-7--7---7-7-7--7-7--7---7-7-7--7-7---7--7-7-7--7-7----5--8|
|-7-7--7---7-7-7--7-7--7---7-7-7--7-7---7--7-7-7--7-7----5--8|
|-7-7--7---7-7-7--7-7--7---7-7-7--7-7---7--7-7-7--7-7----5--8|


Bridge
(Once again, Optional, Its just normal picking, Fallow The Music)
I'm not exactly sure of the picking here, but you can almost do anything here,or not do 
at all, be like max
and be HARDCORE!
|-----------------------------------------|
|-----------------------------------------|\
|--9--7-7-7--9--7-7---9---7-7-7---9--7-7-7| \ Repeat Until "Coma" Part
|-----------------------------------------| /
|-----------------------------------------|/
|-----------------------------------------|

Coma
Repeat Until The End Of The Song

|---------------------------------------------------------------------------|
|---------------------------------------------------------------------------|
|---------------------------------------------------------------------------|
|-3-3-3-3-3-3-3-3--5-5-5-5-5-5-5-5--7-7-7-7-7-7-7-7-7-7-7-7--7-7--5-5-------|
|-3-3-3-3-3-3-3-3--5-5-5-5-5-5-5-5--7-7-7-7-7-7-7-7-7-7-7-7--7-7--5-5-------|
|-3-3-3-3-3-3-3-3--5-5-5-5-5-5-5-5--7-7-7-7-7-7-7-7-7-7-7-7--7-7--5-5-------|
     (8 Notes)        (8 Notes)             (12 Notes)
Tap to rate this tab
 
# A B C D E F G H I J K L M N O P Q R S T U V W X Y Z