Guitaretab - guitar tabs
Song name
# A B C D E F G H I J K L M N O P Q R S T U V W X Y Z

Misc Unsigned Bands - Ungfila - All Because Of You tab

Song: All Because of You
Artist: Ungfila
Album: Highest of the high
Year: 2006
www.Ungfila.no
 --------------------------------------
| All Because of you |
 --------------------------------------

Elecric guitar
Intro/verse: 
e|-----------------------|      play the Intro 8 times    
H|-----------------------|      
G|-----------------------|      
D|-----------------------| 
A|----7-6-7-----2-0-2----|
E|-0-0-------9-7---------| 

Pre-Chorus:
Sing, Sing Sing....
e|-------------------------------|
H|---------------13-12-11-12-11b-|
G|-------------------------------|
D|-------------------------------|
A|-------------------------------|
E|-------------------------------|

Chorus:
Distorted
  D      A      F#                 G
e|----------------------------------------------------|
H|----------------------------------------------------|
G|-7777---------11-11-11-11-11-11--12-12-12-12-12-12--|
D|-7777--777777-11-11-11-11-11-11--12-12-12-12-12-12--|
A|-5555--777777-9--9-9-9-9--9--10-10-10-10-10-10--|
E|-------555555---------------------------------------|

  D      A      F#                 G
e|----------------------------------------------------|
H|----------------------------------------------------|
G|-7777---------11-11-11-11-11-11--12-12-12-12-12-12--|
D|-7777--777777-11-11-11-11-11-11--12-12-12-12-12-12--|
A|-5555--777777-9--9-9-9-9--9--10-10-10-10-10-10--|
E|-------555555---------------------------------------|
[ Tab from: http://www.guitaretab.com/m/misc-unsigned-bands/106388.html ]
Bridge:
Clean
  D      A      F#                 G
e|----------------------------------------------------|
H|----------------------------------------------------|
G|-7777---------11-11-11-11-11-11--12-12-12-12-12-12--|
D|-7777--777777-11-11-11-11-11-11--12-12-12-12-12-12--|
A|-5555--777777-9--9-9-9-9--9--10-10-10-10-10-10--|
E|-------555555---------------------------------------|
  D      A      F#                 G
e|----------------------------------------------------|
H|----------------------------------------------------|
G|-7777---------11-11-11-11-11-11--12-12-12-12-12-12--|
D|-7777--777777-11-11-11-11-11-11--12-12-12-12-12-12--|
A|-5555--777777-9--9-9-9-9--9--10-10-10-10-10-10--|
E|-------555555---------------------------------------|








Verse
All because of You I live and breathe Everyday
Im giving you the praise
All because of You I see and feel Everyday
Im giving you the fame


Pre-Chorus
You make me Sing, sing,
sing, sing, sing, sing, sing...


Chorus
I am because You are
I live because You live
I love because You love me first


Bridge
Im alive cause You re alive
Im alive cause You re alive
Im alive cause You re alive in me

This is how u play it:

Intro x8
Verse x1
Pre-Chorus x1
Chorus x2
Verse x1
Pre Chorus x1
Chorus x2
Bridge x3
Pre Chorus x2
Chorus x2
 
This is my first song I ever tab
Im not sure it is absulute correctly, but it hears correct.

Tabed by jonup
jonupen@hotmail.com

________Enjoy____________________
Related for Ungfila - All Because Of You tab