Song name
# A B C D E F G H I J K L M N O P Q R S T U V W X Y Z

Misc Unsigned Bands - Sba - Heavenly Muse tab

Here Bra

iNTRO

e-----------------------------------------------------------|
B------1-------0------4--5---3-5-3----3-----3-5-3------3----|
G-----2-2-----2-2----5--4---3-----3--2-2---3------3---2-2---|
D----2---2---0---0------------------0----------------0------|
A---0-------------------------------------------------------|
E---------3-1-----1/4--4---3-------2----2-3---------2-------|

vERSE

e--0--------------------------------|
B--1--------------------------------|
G--2-------4-------2----------------|
D--2---2---X---3---X----------------|
A--0---X---X---X---X----------------|
E------1---4---3---2----------------|


cHORUS

e---0---4-/-1-------------------|
B---1---4-/-1-------------------|
G---2---5-/-2-------------------|
D---2---6-/-3-------------------|
A---0---6-/-3-------------------|
E-------4-/-1-------------------|
Tap to rate this tab
# A B C D E F G H I J K L M N O P Q R S T U V W X Y Z