Song name
# A B C D E F G H I J K L M N O P Q R S T U V W X Y Z

Misc Unsigned Bands - Rejected Possibilities - Cmsts 2008 tab

Tabbed by: RPguitarplaya
Email: Ditt0_the_Alien117@Yahoo.com

Tuning: Standard

e|--------------------------------------------------------------------------|
B|--------------------------------------------------------------------------|
G|--------------------------------------------------------------------------|
D|--x2--x2--x2--x2--x2-x2---x2--x2--x2--x2-x2-3-----------------------------|
A|--x0--x0--x0--x0--x0-x0-2-x0--x0--x0--x0-x1-3-----------------------------|
E|--x1--x1--x1--x1--x1-x1-2-x1--x1--x1--x1-x1-3-----------------------------|

e|--------------------------------------------------------------------------|
B|--------------------------------------------------------------------------|
G|--------------------------------------------------------------------------|
D|------------------------------------7p6----5p4----3p2---------------------|
A|----------7p6----------5p4------------------------------------------------|
E|-x0-x0-x0-----x0-x0-x0-----x0-x0-x0-----x0-----x0-------------------------|

e|--------------------------------------------------------------------------|
B|--------------------------------------------------------------------------|
G|--------------------------------------------------------------------------|
D|--------------------------------------------------------------------------|
A|-4/3-x-x-x-x-x-x-4/3-x-x-x-x-x-x-4/3-x-x-x-x-x-x-5/4----------------------|
E|-2/1-x-x-x-x-x-x-2/1-x-x-x-x-x-x-2/1-x-x-x-x-x-x-3/2----------------------|

That's most, but not all of it.

(Guitar parts are not in exact order.)

| /  slide up
| \  slide down
| h  hammer-on
| p  pull-off
| ~  vibrato
| +  harmonic
| x  Mute note
Tap to rate this tab
 
# A B C D E F G H I J K L M N O P Q R S T U V W X Y Z