Song name
# A B C D E F G H I J K L M N O P Q R S T U V W X Y Z

Misc Unsigned Bands - Kwoon - I Lived On The Moon tab

Artist: Kwoon
Song: I Lived On The Moon
Tabbed by: Kevin G.
Standard Tuning

Enjoy :)

Dm              F
Dear little lad
C                           G
Here's the story of my life
                         Dm
I lived on the moon (2x)
Dm                       F
Grey flying snakes along
C                          G
Mountains of destiny while
           G
The three tailed moneys
                       Dm
Were drawing the stars
Dm              F
Light from the Sun and I
       C           G            Dm
Hide myself on the dark side, alone
Dm             F
I've run so far
C
To find my way
              G       Dm  ( Continues until...)
Then I dream again.. alone

Play with distortion and reverb I think. What ever sounds closest:

e|----0-1-0-1-3-1-3-5-1-3-5-6-5-3-5-3-1-3-1-0-1-------------------|
B|--3-------------------------------------------------------------|
G|----------------------------------------------------------------|
D|----------------------------------------------------------------|
A|----------------------------------------------------------------|
E|----------------------------------------------------------------|

e|--0-1-3-1-3-5-3-5-6-5-7-6-7-8-7-6-7-6-5-6-5-3-5-3-1---||--------|
B|------------------------------------------------------||--------|
G|------------------------------------------------------||--------|
D|------------------------------------------------------||--------|
A|------------------------------------------------------||--------|
E|------------------------------------------------------||--------|

1x
2x
3x Silence and peace
4x Giant waves, fireflies..
e|----0-1-0-1-3-1-0-1-0-------------------------------------------   - |
B|--3-------------------3-1---------------------------------------  -- |
G|----------------------------------------------------------------  -- |
D|----------------------------------------------------------------  -- |
A|----------------------------------------------------------------  -- |
E|----------------------------------------------------------------  -- |
1x                                                                   |
2x Dear little boy,listen
3x Follow your thought and fly
4x
e|----0-1-0-1-3-1-3-5-1-3-5-6-5-3-5-3-1-3-1-0-1-------------------  -- |
B|--3-------------------------------------------------------------  -- |
G|----------------------------------------------------------------  -- |
D|-------------------------------------------------------------------- |   4X
A|----------------------------------------------------------------  -- |
E|----------------------------------------------------------------  -- |
1x
2x To voices of your soul   It showed you the way of
3x Choosing all the things that you desire
4x
e|--0-1-3-1-3-5-3-5-6-5-6-7-6-7-8-7-6-7-6-5-6-5-3-5-3-1-----------   |
B|----------------------------------------------------------------   |
G|----------------------------------------------------------------   |
D|----------------------------------------------------------------   |
A|----------------------------------------------------------------   |
E|----------------------------------------------------------------   |
                                                                     -

Dm                                F
Your dream will be your only shell
C                            G          Dm
Your secrets, your hiding place, my son
Dm
Don't let them try
                   F
To crush your brain
               C
or Let you go far
G       Dm
..my son


       Dm                F                C                G
e|-1-|---|---|    e|-1-|---|---|   e|---|---|---|   e|---|---|-4-|
B|---|---|-3-|    B|-1-|---|---|   B|-1-|---|---|   B|---|---|-4-|
G|---|-2-|---|    G|---|-2-|---|   G|---|---|---|   G|---|---|---|
D|---|---|---|    D|---|---|-3-|   D|---|-2-|---|   D|---|---|---|
A|---|---|---|    A|---|---|---|   A|---|---|---|   A|---|-2-|---|
E|---|---|---|    E|---|---|---|   E|---|---|---|   E|---|---|-3-|


http://www.kwoon-music.com/
I hope You guys dont Mind...
Tap to rate this tab
# A B C D E F G H I J K L M N O P Q R S T U V W X Y Z