Song name
# A B C D E F G H I J K L M N O P Q R S T U V W X Y Z

Misc Unsigned Bands - West - Slime 69 tab

Help us improve GuitareTab! Take a short survey!
E--33--------------------|
A--55--55---3~-----------|
D------77---5------------|
G------------------------|
B------------------------|
E------------------------|

E-------------------------------------------------------------------|
A-------------------------------------------------------------------|
D-------------------------------------------------------------------|
G-----------------13------13----------13---0------------------------|
B-----------13-12-----X2-----12-13-12-----------------12-10---------|
E--12-13-12------------------------------0---12-11-12---------------|
Related for West - Slime 69 tab