Song name
# A B C D E F G H I J K L M N O P Q R S T U V W X Y Z

Misc Unsigned Bands - Andres Vela - Just Made Up tab

--------------------------------|--------9-7-------------------|x2
-12-9p7-9--12-12-9p7-9----------|-12-9p7-----9-----------------|
--------------------------------|------------------------------|
--------------------------------|------------------------------|
--------------------------------|------------------------------|
--------------------------------|------------------------------|

-33333-3-333333-33333-3-333333--|-3/5-5-44-3-------------------|x2
-33333-0-111111-33333-0-111111--|-3/5-5-44-3-------------------|
-------0--------------0---------|-0-0-0-00-0-------------------|
--------------------------------|------------------------------|
--------------------------------|------------------------------|
--------------------------------|------------------------------|
Tap to rate this tab
# A B C D E F G H I J K L M N O P Q R S T U V W X Y Z