Song name
# A B C D E F G H I J K L M N O P Q R S T U V W X Y Z

Misc Unsigned Bands - Free Credit Report - Pirate Song tab

Free Credit Report - Pirate Song

  G                                  G/B    C
	
|-----3------3------3------3------3------3------3------3-|
|-----3------3------3------3------3------3------3------3-|
|--------------------------------------------------------|
|--------------------------------------------------------|
|------------------------------------2------3-------3----|
|-3------3------3------3------3--------------------------|


  D                                      G
	
|----2-----2------2-----2------2------2------3------3-|
|----3-----3------3-----3------3------3------3------3-|
|-----------------------------------------------------|
|-0-----0-----0------0------0------0------------------|
|-----------------------------------------------------|
|-----------------------------------------3------3----|


       G                                   G/B    C
They say a man should always dress for the job he wants 
   D                                              G
So why'm I dressed up like a pirate in this restaurant
                                    G/B    C
Its all because some hacker stole my identity 
      D                                                G
Now I'm in here every evening service chowder and ice tea 


                                       G/B    C
Should have gone to free credit report dot com   
   D                                               G
I should have seen this coming at me like an atom bomb
                                       G/B    C
They monitor your credit and send you email alerts
   D                                               G
So you don't end up selling fish to tourists in t-shirts


Offer applies to enrollment and triple advantage
Tap to rate this tab
 
# A B C D E F G H I J K L M N O P Q R S T U V W X Y Z