Song name
# A B C D E F G H I J K L M N O P Q R S T U V W X Y Z

Misc Unsigned Bands - The Promise Morning - Feel Happy Everyday tab

This is another song by The Promise Morning (Me). Its for my song Feel Happy Everyday. 
is kinda simplified for my friends to learn, and learn quickly. the more difficult way 
probably be added later sometime.

Intro Part 1: Rhythm Guitar
e|----------------------------------------------------|
B|----------------------------------------------------|
G|----------------------------------------------------|  Play this riff 4x
D|----------------------------------------------------|
A|77777700000000004444442222222222--------------------|
D|77777700000000004444442222222222--------------------|

Intro Part 2: Rhythm Guitar
e|----------------------------------------------------|
B|----------------------------------------------------|
G|----------------------------------------------------|
D|---7-7--7-4---9-11-9----7-7--7-4---99999------------|
A|7--4-5--4-2---7------7--4-5--4-2---77777------------|
D|7--------------------7------------------------------|

Verse: Rhythm Guitar (let ring)
e|----------------------------------------------------|
B|----------------------------------------------------|
G|----------------------------------------------------|  Play riff 2x
D|----9---7---7---------------------------------------|
A|7---7---4---5---7---2---0---------------------------|
D|7---------------7---2---0---------------------------|

Pre-chorus: Rhythm Guitar
e|----------------------------------------------------|
B|----------------------------------------------------|
G|----------------------------------------------------|  Play this riff 4x
D|----------------------------------------------------|
A|77777700000000004444442222222222--------------------|
D|77777700000000004444442222222222--------------------|

Verse: Rhythm Guitar (let ring)
e|----------------------------------------------------|
B|----------------------------------------------------|
G|----------------------------------------------------|  Play riff 2x
D|----9---7---7---------------------------------------|
A|7---7---4---5---7---2---0---------------------------|
D|7---------------7---2---0---------------------------|


Pre-chorus: Rhythm Guitar
e|----------------------------------------------------|
B|----------------------------------------------------|
G|----------------------------------------------------|  Play this riff 4x
D|----------------------------------------------------|
A|77777700000000004444442222222222--------------------|
D|77777700000000004444442222222222--------------------|


Chorus: Rhythm Guitar
e|----------------------------------------------------|
B|----------------------------------------------------|
G|----------------------------------------------------|  Play this riff 4x
D|--7-7------4-4--------------------------------------|
A|7-4-5-0-0--2-2--2-2-2-------------------------------|
D|7-----0-0-------2-2-2-------------------------------|

Phase 1: Rhythm Guitar

Pre-chorus: Rhythm Guitar
e|----------------------------------------------------|
B|----------------------------------------------------|
G|----------------------------------------------------|  Play this riff 3x
D|----------------------------------------------------|
A|0-0--2-2--4-4--7---0-00----0--2-22------------------|
D|0-0--2-2--4-4--7---0-00----0--2-22------------------|

Pre-chorus: Rhythm Guitar
e|----------------------------------------------------|
B|----------------------------------------------------|
G|----------------------------------------------------|  Play this riff 4x
D|----------------------------------------------------|
A|77777700000000004444442222222222--------------------|
D|77777700000000004444442222222222--------------------|


Chorus: Rhythm Guitar
e|----------------------------------------------------|
B|----------------------------------------------------|
G|----------------------------------------------------|  Play this riff 4x
D|--7-7------4-4--------------------------------------|
A|7-4-5-0-0--2-2--2-2-2-------------------------------|
D|7-----0-0-------2-2-2-------------------------------|

Pre-chorus: Rhythm Guitar
e|----------------------------------------------------|
B|----------------------------------------------------|
G|----------------------------------------------------|  Play this riff 2x
D|----------------------------------------------------|
A|77777700000000004444442222222222--------------------|
D|77777700000000004444442222222222--------------------|

Outro: Rhythm Guitar

e|----------------------------------------------------|
B|----------------------------------------------------|
G|----------------------------------------------------| Play this riff 1 time
D|---7------------------------------------------------|
A|7--4--0---------------------------------------------|
D|7-----0---------------------------------------------|
Tap to rate this tab
# A B C D E F G H I J K L M N O P Q R S T U V W X Y Z