Song name
# A B C D E F G H I J K L M N O P Q R S T U V W X Y Z

Misc Unsigned Bands - Joe Melson - Blue Bayou tab

-----------------------------------------------|
-1---0-0-1-0-0-----0-1-0-0------0-1-0-0-0-1-1--|
--0-2-----2---2-0-2-------2--0-2-----2-2-----0-|
-----------------------------------------------|
-----------------------------------------------|
-----------------------------------------------|


----------------------------------------------|
---0-1-0-0-----0-1-0-0-----0-1-0-0-0-1-1-1----|
0-2-------2-0-2-------2-0-2---2-2-2-----------|
----------------------------------------------|
----------------------------------------------|
----------------------------------------------|


----------------------------------------------|
111-1-0-0-1-0-0-0---1-1-1-0-0-0-1-0-0-0---0-1-|
---------------2-2-----------2-------2-2------|
------------------5---------------------2-----|
----------------------------------------------|
----------------------------------------------|


----------------------------------------------|
3-1-------------------------------------------|
---2-----0-2-0-2-0-0-2-2-0--------------------|
----5-0-5-----------------2-0-----------------|
-----------------------------3-3-3------------|
----------------------------------------------|

There it is. Have fun.
Jhonny_23_10
Tap to rate this tab
# A B C D E F G H I J K L M N O P Q R S T U V W X Y Z