Song name
# A B C D E F G H I J K L M N O P Q R S T U V W X Y Z

Misc Unsigned Bands - Catastrophic Clizbomb - Simple tab

-------------------------------------------------------------------------------
			     SIMPLE- CATASTROPHIC CLIZBOMB
-------------------------------------------------------------------------------
Tabbed by:the NAB
Email:??????@??.com

Tuning:Standard
                               Intro-Verse 1

e|---------------------------------------------------------------------------|
B|---------------------------------------------------------------------------|
G|---------------------------------------------------------------------------|
D|---------------------------------------------------------------------------|
A|---------------------------------------------------------------------------|
E|---0---5-5--33--00---5-5--33----0---5-5--33----00----5-5/6--33-------------|

                               Intro-Slow solo 1
e|---------------------------------------------------------------------------|
B|---------------------------------------------------------------------------|
G|---------------------------------------------------------------------------|
D|---------------------------------------------------------------------------|
A|---------------------------------------------------------------------------|
E|---0---5h4h3---0-0---55--3----0---5h4h3---0-0---55-3-----------------------|
                               Intro-Verse 2
                               
e|---------------------------------------------------------------------------|
B|---------------------------------------------------------------------------|
G|---------------------------------------------------------------------------|
D|---------------------------------------------------------------------------|
A|---------------------------------------------------------------------------|
E|---0---5-5--33--00---5-5--33----0---5-5--33----00----5-5/6--33-------------|

                              Intro-Slow Bridge 1
e|---------------------------------------------------------------------------|
B|---------------------------------------------------------------------------|
G|---------------------------------------------------------------------------|
D|---------------------------------------------------------------------------|
A|---------------------------------------------------------------------------|
E|---0---2-2-33---00---2--33---0---2-2-33---00---3--22-----------------------|
                              Intro-Slow solo 2
e|---------------------------------------------------------------------------|
B|---------------------------------------------------------------------------|
G|---------------------------------------------------------------------------|
D|---------------------------------------------------------------------------|
A|---------------------------------------------------------------------------|
E|---0-123--3-3--210---0-123--3-3--210---------------------------------------|

| /  slide up
| \  slide down
| h  hammer-on
| p  pull-off
| ~  vibrato
| +  harmonic
| x  Mute note
===============================================================================
Tap to rate this tab
# A B C D E F G H I J K L M N O P Q R S T U V W X Y Z