Song name
# A B C D E F G H I J K L M N O P Q R S T U V W X Y Z

Misc Unsigned Bands - Equippers - Revolution tab

Help us improve GuitareTab! Take a short survey!
----------------------------------------------------------------------------
			     Revolution - Equippers
------------------------------------------------------------------------------
Tabbed by:JP
This is ma first tab so plz b nice lol

Tuning:E A D G B e
intro:guitar 1 x4
e|--------------------------------------------------------------------------|
B|--------------------------------------------------------------------------|
G|--------------------------------------------------------------------------|
D|-5/7\5/9\7/10\9/12--------------------------------------------------------|
A|-3/5\3/7\5/8 \7/10--------------------------------------------------------|
E|--------------------------------------------------------------------------|
intro:guitar 2 x2
e|-----------------------------------------------------------------|
B------------------------------------------------------------------|
G|-----------------------------------------------------------------|
D------------------5-5-5-5-5---------------------------------------|
A|-7-7-7-7-7--3-3--3-3-3-3-3--5-5--7-------------------------------|
E|-5-5-5-5-5--1-1-------------3-3--5-------------------------------|
verse:repeat x3 on last one, hold the C chord
e|--------------------------------------------------------|
B|--------------------------------------------------------|
G|--------------------------------------------------------|
D|-------5-5-5--------------------------------------------|
A|-3-3-3-3-3-3-5-5-5--7-7-7-------------------------------|
E|-1-1-1-------3-3-3--5-5-5-------------------------------|
Pre-Chorus:Muted the whole time x2
e|-x------------------x-------------------------------------|
B|-x------------------x-------------------------------------|
G|-x------------------x-------------------------------------|
D|-x22222222----------x-------------------------------------|
A|-x22222222-33333333-x-------------------------------------|
E|-x00000000-11111111-x-------------------------------------|
Chorus:
e|--------------------------------------------------------------------|
B|--------------------------------------------------------------------|
G|--------------------------------------------------------------------|
D|-55555--------------55555--------------55555------------------------|
A|-33333-55-77777-33--33333-55-77777-33--33333-55-77777777------------|
E|-------33-55555-11--------33-55555-11--------33-55555555------------|

e|-x--------------x----------------------------------------------------------|
B|-x--------------x----------------------------------------------------------|
G|-x--------------x----------------------------------------------------------|
D|-x-222222222222-x----5-----------------------------------------------------|
A|-x-222222222222-x-3--3-----------------------------------------------------|
E|-x-000000000000-x-1--------------------------------------------------------|

Instrumental: Am four bars, G four bars, F four bars, G four bars, C

e|---------------------------------------------------------------------------|
B|-13~-12----13~-12----13~-12----13~-12----13~~~~~---------------------------|
G|-------12--------12--------12--------12------------------------------------|
D|---------------------------------------------------------------------------|
A|---------------------------------------------------------------------------|
E|---------------------------------------------------------------------------|

Bridge:

C    G/B
Here I am
Am        G       F
     Send me I'll go
     Em
For you Lord
F           G              C
    Send me I will go for you  x4

Chorus 2:

C                                     F F
    This is a rev - o - lution
C                                     F F
    This is a rev - o - lution baby
C
    This is a rev - o - lution

I'm not ashamed...

e|-x--------------x--------------------------------------------------|
B|-x--------------x--------------------------------------------------|
G|-x--------------x--------------------------------------------------|
D|-x-222222222222-x----5---------------------------------------------|
A|-x-222222222222-x-3--3---------------------------------------------|
E|-x-000000000000-x-1------------------------------------------------|

Order of song:::
intro
verse
pre-chorus
chorus 1
verse
pre-chorus
chorus
instrumental
bridge
chorus 2
chorus 1
end on chorus 1

| /  slide up
| \  slide down
| h  hammer-on
| p  pull-off
| ~  hold the note
| +  harmonic
| x  Mute note
===============================================================================
Related for Equippers - Revolution tab