Song name
# A B C D E F G H I J K L M N O P Q R S T U V W X Y Z

Misc Unsigned Bands - Alestorm - Captain Morgans Revenge tab

Tabbed by: MetallAndy - 12th April 2008


                             Please note!
This file is the author's own work and represents their interpretation of the
song. You may only use this file for private study, scholarship, or research.

Artist: Alestorm
Song: Captain Morgans Revenge
Tuning: Half step down


Couldnt figure out the intro, sorry!

VERSE) - Starts at 00:58
E|----------------------------------------------------------|
B|----------------------------------------------------------|
G|----------------------------------------------------------|
D|----------7-----------------------------------------------|       X4
A|--2-------5---------7------7--9---------------------------|
E|--0-----------------5------5--7---------------------------|

Starts at 01:17
E|------------------------------------------------------------------|
B|------------------------------------------------------------------|
G|------------------------------------------------------------------|
D|--4--4-4-4--4-4---------------------------------------------------|   X3
A|--2--2-2-2--2-2---4--4-4-4--4-4---7--7-7-7--7-7---2--2-2-2--2-2---|
E|------------------2--2-2-2--2-2---5--5-5-5--5-5---0--0-0-0--0-0---|

The 4th time ^
E|---------------------------------------------------|
B|---------------------------------------------------|
G|---------------------------------------------------|
D|--4--4-4-4--4-4-------------------2-----9----------|
A|--2--2-2-2--2-2---4--4-4-4--4-4---0-----7----------|
E|------------------2--2-2-2--2-2--------------------|

(CHORUS) The 1st time Starts at: 01:37
E|--------------------------------------------------------------------|
B|--------------------------------------------------------------------|
G|--------------------------------------------------------------------|
D|------------7--7-7-7--7-7---------------------------9--9-9-9--9-9---|
A|---4-4------5--5-5-5--5-5-------7--7-7-7--7-7-------7--7-7-7--7-7---|
E|---2-2--------------------------5--5-5-5--5-5-----------------------|

And then (CHORUS)
E|-----------------------------------------------------------------------|
B|-----------------------------------------------------------------------|
G|-----------------------------------------------------------------------|
D|---------------------7--7-7-7--7-7----------------------9--9-9-9--9-9--|
A|-4--4-4-4--4-4-------5--5-5-5--5-5----7--7-7-7--7-7-----7--7-7-7--7-7--|
E|-2--2-2-2--2-2------------------------5--5-5-5--5-5--------------------|

Starts at: 01:57
E|---------------------------------------------|
B|---------------------------------------------|
G|---------------------------------------------|
D|---4-----------------4-----------------------|
A|---2-------7---------2------7---5-4-2--------|
E|-----------5----------------5---3-2-0--------|

Starts at: 03:06
E|---------------------------------------------|
B|---------------------------------------------|
G|-----------18--16--18--19--------------------|
D|---14/16---------------------19--------------|
A|------------------------------------19-------|
E|---------------------------------------------|

E|-----------------------------------------------------------------|
B|-----------------------------------------------------------------|
G|---18--16----16---------18-16-18-19------19b-19b-19b--19-18--16--|
D|----------19----18---16--------------19--------------------------|
A------------------------------------------------------------------|
E|-----------------------------------------------------------------|
Play chorus while the lick is playing.

Thats all I got at the moment!
Tap to rate this tab
# A B C D E F G H I J K L M N O P Q R S T U V W X Y Z