Song name
# A B C D E F G H I J K L M N O P Q R S T U V W X Y Z

Misc Unsigned Bands - Manibela - Guitar Addict tab

Title: Guitar Addict
Artist: Manibela
Album: Happy Stambay

For any comments and Suggestion:

Text Me: 09198408399
Friendster: boybassista@yahoo.com

Intro 1:

    G   C9   G    C9
e--333--333--333--333-----|
b--333--333--333--333-----|
g--000--000--000--000-----|
D--000--222--000--222-----|
A--222--333--222--333-----|
E--333-------333----------|

Intro 2:

Guitar 1:
e---------------------------------------------------------------------|
b---------------------------------------------------------------------|
g-------------------------------555------------------------------555--|
D-5---5h4---3—3h2----2—2h1h2----555---5—5h4----3-3h2--2-2h1h2----555--|
A-5------5--3----3---2----------333---5-----5—-3------2---------—333--|
E-3---------1-------------------------3--------1----------------------|

Guitar 2:
e---------------------------|
b---------------------------|
g-----------------555-------|
D--5~---3~---2~---555-------|
A--5~---3~---2~---333-------|
E—-3~---1~------------------|

Verse:

Guitar addict…
e--333--333--333--333-----|
b--333--333--333--333-----|
g--000--000--000--000-----|
D--000--222--000--222-----|
A--222--333--222--333-----|
E--333-------333----------|

Nahihirapang…
e--333--333--333--333-----|
b--333--333--333--333-----|
g--000--000--000--000-----|
D--000--222--000--222-----|
A--222--333--222--333-----|
E--333-------333----------|

Basta’t alam ko…
e--333--333--333--333-----|
b--333--333--333--333-----|
g--000--000--000--000-----|
D--000--222--000--222-----|
A--222--333--222--333-----|
E--333-------333----------|

Refrain:
Kahit na naasar ka na…
Guitar 1:
e---------------|
b---------------|
g------5~-------|
D--2~--5~-2~----|
A--2~--3~-2~----|
E---------------|--


Guitar 2:
e----------------------222---|
b-------111-------111--333---|
g-------000-------000--222---|
D--222--222--222--222--------|
A--222--333--222--333--------|
E----------------------------|

Chorus:

Guitar 2:
LAging ikaw…
e--333--333--333--333-----|
b--333--333--333--333-----|
g--000--000--000--000-----|
D--000--222--000--222-----|
A--222--333--222--333-----|
E--333-------333----------|

Guitar 1:

Fill-in
e-----8h9-8h9-8h9-|
b-----------------|
g-----------------|

Guitar 2:

At pinapangarap…
e--333--333--333--333-----|
b--333--333--333--333-----|
g--000--000--000--000-----|
D--000--222--000--222-----|
A--222--333--222--333-----|
E--333-------333----------|

Guitar 1:

Fill-in
e-----8h9-8h9-8h9-|
b-----------------|
g-----------------|


Guitar 1:(not sure)
Ang guitara ko…
e-------------------|
b-------------------|
g-------------------|
D-------------------|
A--7-/-9-/-13\12----|
E-------------------|

Guitar 2:
e----------------------222---|
b-------111-------111--333---|
g-------000-------000--222---|
D--222--222--222--222--------|
A--222--333--222--333--------|
E----------------------------|

Intro:

Guitar 1:

e---------------------------------------------------------------------|
b---------------------------------------------------------------------|
g-------------------------------555------------------------------555--|
D-5---5h4---3—3h2----2—2h1h2----555---5—5h4----3-3h2--2-2h1h2----555--|
A-5------5--3----3---2----------333---5-----5—-3------2---------—333--|
E-3---------1-------------------------3--------1----------------------|

Guitar 2:
e---------------------------|
b---------------------------|
g-----------------555-------|
D--5~---3~---2~---555-------|
A--5~---3~---2~---333-------|
E—-3~---1~------------------|

Verse:
Guitar 2:

Lagi kang nasa tabi ko…
e--333--333--333--333-----|
b--333--333--333--333-----|
g--000--000--000--000-----|
D--000--222--000--222-----|
A--222--333--222--333-----|
E--333-------333----------|
                                     
Nang-iinis,,,nangugulo..                 
e--333--333--333--333-----|        
b--333--333--333--333-----|        
g--000--000--000--000-----|        
D--000--222--000--222-----|        
A--222--333--222--333-----|        
E--333-------333----------|        
Refrain:
Kahit na Nanakit ka na…
Guitar 1:
e---------------|
b---------------|
g------5~-------|
D--2~--5~-2~----|
A--2~--3~-2~----|
E---------------|

Guitar 2:

e----------------------222---|
b-------111-------111--333---|
g-------000-------000--222---|
D--222--222--222--222--------|
A--222--333--222--333--------|
E----------------------------|

Chorus:

Guitar 2:
LAging ikaw…
e--333--333--333--333-----|
b--333--333--333--333-----|
g--000--000--000--000-----|
D--000--222--000--222-----|
A--222--333--222--333-----|
E--333-------333----------|

Guitar 1:

Fill-in
e-----8h9-8h9-8h9-|
b-----------------|
g-----------------|


Guitar 2:

At pinapangarap…
e--333--333--333--333-----|
b--333--333--333--333-----|
g--000--000--000--000-----|
D--000--222--000--222-----|
A--222--333--222--333-----|
E--333-------333----------|


Guitar 1:

Fill-in
e-----8h9-8h9-8h9-|
b-----------------|
g-----------------|


Guitar 1:(not sure)
Ang guitara ko…
e-------------------|
b-------------------|
g-------------------|
D-------------------|
A--7-/-9-/-13\12----|
E-------------------|

Guitar 2:

e----------------------222---|
b-------111-------111--333---|
g-------000-------000--222---|
D--222--222--222--222--------|
A--222--333--222--333--------|
E----------------------------|

Intro 2:

Guitar 1:

e---------------------------------------------------------------------|
b---------------------------------------------------------------------|
g-------------------------------555------------------------------555--|
D-5---5h4---3—3h2----2—2h1h2----555---5—5h4----3-3h2--2-2h1h2----555--|
A-5------5--3----3---2----------333---5-----5—-3------2---------—333--|
E-3---------1-------------------------3--------1----------------------|

Guitar 2:
e---------------------------|
b---------------------------|
g-----------------555-------|
D--5~---3~---2~---555-------|
A--5~---3~---2~---333-------|
E—-3~---1~------------------|


Adlib: (post niyo nalang hahaha)


Chorus:

Guitar 2:
LAging ikaw…
e--333--333--333--333-----|
b--333--333--333--333-----|
g--000--000--000--000-----|
D--000--222--000--222-----|
A--222--333--222--333-----|
E--333-------333----------|

Guitar 1:

Fill-in
e-----8h9-8h9-8h9-|
b-----------------|
g-----------------|

Guitar 2:

At pinapangarap…
e--333--333--333--333-----|
b--333--333--333--333-----|
g--000--000--000--000-----|
D--000--222--000--222-----|
A--222--333--222--333-----|
E--333-------333----------|

Guitar 1:

Fill-in
e-----8h9-8h9-8h9-|
b-----------------|
g-----------------|

Guitar 1:(not sure)
Ang guitara ko…
e-------------------|
b-------------------|
g-------------------|
D-------------------|
A--7-/-9-/-13\12----|
E-------------------|

Guitar 2:

e----------------------222---|
b-------111-------111--333---|
g-------000-------000--222---|
D--222--222--222--222--------|
A--222--333--222--333--------|
E----------------------------|

Fade:
Tap to rate this tab
# A B C D E F G H I J K L M N O P Q R S T U V W X Y Z