Song name
# A B C D E F G H I J K L M N O P Q R S T U V W X Y Z

Misc Unsigned Bands - Indico - San Mia Grothia tab

Indico
san mia grothia



Intro 
e|----------------------------------------------------------|
B|----------------------------------------------------------|
G|----------------------------------------------------------|
D|----------------------------------------------------------|
A|-7--10--9--10-----10--9--10-------10--9--10-----12--10--9-|
E|---------------8--------------10-------------8------------|


e|---------------------------------------------------------------|
B|---------------------------------------------------------------|
G|---------------------------------------------------------------|
D|---------------------------------------------------------------|
A|-7--10--9--10-----10--9--10---12-12-12-------------------------|
E|---------------8--------------10-10-10-------------------------|
Pre Verse 
guita
e|---------------------------------------------------------------|
B|---------------------------------------------------------------|
G|---------------------------------------------------------------|
D----------------------------------------------------------------|
A|-----7--10--9--10-----10--9--10-------10--9--10-----12--10--9--|
E|-------------------8--------------10-------------8-------------|
guitar 2
e|----------------------------------------------------------------------|
B|----------------------------------------------------------------------|
G|-----9--12--11--12------12--11--12------12--11--12------14--12--11----|
D|--------------------10--------------12--------------10----------------|
A|----------------------------------------------------------------------|
E|----------------------------------------------------------------------|
verse 
e|------------------------------------------------|
B|------------------------------------------------|
G|-9999999--12121212121212--777777--14--12--11/12-|
D|-9999999--12121212121212--777777--14--12--11/12-|
A|-7777777--10101010101010--555555--12--10---9/1--|
E|------------------------------------------------|
chorus
e|----------------------||  -------------------|
B|----------------------||  -------------------|
G|--99999--55555--77777-||x3--------5555--7----|
D|--99999--55555--77777-||  --2222--5555--7----|
A|--77777--33333--55555-||  --2222--3333--5----|
E|----------------------||  --0000-------------|                          
                   

bridge
guitar 1
e|---------------------------------------------||  
B|---------------------------------------------||  
G|-99--1212-1111--1212-------------------------||
D|-99--1212-1111--1212------------7------------||  
A|-77--1010--9-9--1012--7--9--10-----10--9--10-||  
E|---------------------------------------------||  
guitar 2
e|---------------------------------------------||  
B|---------------------------------------------||
G|--99--1212-1111--1212------------------------||
D|--99--1212-1111--1212------7--9--10-9--7--9--||  
A|--77--1010--9-9--1012--10--------------------||  
E|---------------------------------------------|| 

riff
e|--------------------------------------------|
B|--------------------------------------------|
G|-99999999-----------------------------------|
D|-99999999-----------------------------------|
A|-77777777--10--9------9--10--9------9-------|
E|------------------10------------10----------|

intro x11
pre-verse x4
verse x4
chorus
pre-verse x2
verse x 4
chorus
bridge x4
riff x4
verse x4
chorus x2
Tap to rate this tab
# A B C D E F G H I J K L M N O P Q R S T U V W X Y Z