Song name
# A B C D E F G H I J K L M N O P Q R S T U V W X Y Z

Misc Unsigned Bands - Loving Intense Of The Orange Eclipse - Midnight Train tab

Artist : Loving Intense Of The Orange Eclipse
   Song Name : Midnight Train
   Composed By : Chris Rands & Dave Cardy
      
   Intro

   E|---------------------|------------------|------------------------------|
   B|---------------------|------------------|------------------------------|
   G|---------------------|------------------|------------------------------|
   D|---------------------|---------5--3-----|------------------------------|
   A|--3--3--5--3----3-5-3|--3-5-3--------5--|--3--3--5--3---3-5-3--3-5-3---|
   E|---------------------|------------------|------------------------------|

   E|---------------------|------------------|------------------------------|
   B|---------------------|------------------|------------------------------|
   G|---------------------|------------------|------------------------------|
   D|-5--3----------------|--------------5-3-|------------------------------|
   A|-------5---3--3--5--3|-3-5-3--3-5-3-----|5---3--3--5--3---3-5-3--3-5-3-|
   E|---------------------|------------------|------------------------------|
      End of intro/ Verse x2
   E|---------------------|------------------|------------------------------|
   B|---------------------|------------------|------------------------------|
   G|---------------------|------------------|------------------------------|
   D|-5--3---------5-5-5-5|-5-5--7-7-7-7-7-7-|-3-3-3-3-3-3--5~~~----5-----5-|
   A|-------5--3---3-3-3-3|-3-3--5-5-5-5-5-5-|-1-1-1-1-1-1--3~~~--3--3--3--3|
   E|---------------------|------------------|------------------------------|
   
   E|---------------------|------------------|------------------------------|
   B|---------------------|------------------|------------------------------|
   G|---------------------|------------------|------------------------------|
   D|-5-5-5-5-5-5--7-7-7-7|-7-7--3-3-3-3-3-3-|-5~~~----5-----5--------------|
   A|-3-3-3-3-3-3--5-5-5-5|-5-5--1-1-1-1-1-1-|-3~~~--3--3--3--3-------------|
   E|---------------------|------------------|------------------------------|
            Chorus
   E|---------------------|-------------------|-----------------------------|
   B|---------------------|-------------------|-----------------------------|
   G|---------------------|-------------------|-----------------------------|
   D|--5--5-5-5--3--3-3-3-|-7--7-7-7--5--5-5-5|--5--5-5-5--3--3-3-3--5-5-5-5|
   A|--3--3-3-3--1--1-1-1-|-5--5-5-5--3--3-3-3|--3--3-3-3--1--1-1-1--3-3-3-3|
   E|---------------------|-------------------|-----------------------------|


    solo will follow soon




Tap to rate this tab
# A B C D E F G H I J K L M N O P Q R S T U V W X Y Z