Song name
# A B C D E F G H I J K L M N O P Q R S T U V W X Y Z

Misc Unsigned Bands - Craig Bailey - Buttons Lullaby tab

p-pull off
h-hammer on
/-slide up
\-slide down
- - - - - - - - - - - - - - - - - - - - - - - - - - - - - -
Intro
E|--------------|--------------|--------------------------|
B|--------------|--------------|--------------------------|
G|--8--6-----6--|--8--6--------|--8--6-----6--8p6---------|
D|--------8-----|--------8--6--|--------8----------8p6h8--|
A|--------------|--------------|--------------------------|
E|--------------|--------------|--------------------------|
- - - - - - - - - - - - - - - - - - - - - - - - - - - - - - -
Solo
E|--------------------------|-----------------------------|
B|--------9-----------------|--------9--------------------|
G|--6--8-----8--6--------8--|--6--8-----8--6--------------|
D|-----------------8--6-----|-----------------8--6--4--6--|
A|--------------------------|-----------------------------|
E|--------------------------|-----------------------------|
- - - - - - - - - - - - - - - - - - - - - - - - - - - - - - - - - -
E|--------------------------|--------------------------------------|
B|--------9-----------------|--------9-----------------------------|
G|--6--8-----8--6--------8--|--6--8-----8--6-----------------6-----|
D|-----------------8--6-----|-----------------8--6--4--6--8-----6--|
A|--------------------------|--------------------------------------|
E|--------------------------|--------------------------------------|
- - - - - - - - - - - - - - - - - - - - - - - - - - - - - - - - - -
E|--------------------------|-----------------------------|
B|--------9-----------------|--------9--------------------|
G|--6--8-----8--6--------8--|--6--8-----8--6--------------|
D|-----------------8--6-----|-----------------8--6--4--6--|
A|--------------------------|-----------------------------|
E|--------------------------|-----------------------------|
- - - - - - - - - - - - - - - - - - - - - - - - - - - - - - -
E|----------------------------|-----------------------------|
B|--------9-------------------|--------9--------------------|
G|--6--8-----8--6--------8/6--|--6--8-----8--6--------------|
D|-----------------8--6-------|-----------------8--6--4--6--|
A|----------------------------|-----------------------------|
E|----------------------------|-----------------------------|
- - - - - - - - - - - - - - - - - - - - - - - - - - - - - - -
Outro
E|-----------|-----------|-----------|-------------|
B|-----------|-----------|-----------|-------------|
G|--------6--|--------8--|--------6--|--------8p6--|
D|--6--8-----|--6--8-----|--6--8-----|--6--8-------|
A|-----------|-----------|-----------|-------------|
E|-----------|-----------|-----------|-------------|
- - - - - - - - - - - - - - - - - - - - - - - - - -
Tap to rate this tab
# A B C D E F G H I J K L M N O P Q R S T U V W X Y Z