Song name
# A B C D E F G H I J K L M N O P Q R S T U V W X Y Z

Misc Unsigned Bands - Across 5 Aprils Blue - Eyed Suicide tab

Intro
Guitar 1
E|---------------------------------------------------|
B|---------------------------------------------------|\
G|---------------------------------------------------| \
D|----0-0-0-------------------------3-3-3--0-0-0-0-0-|  x3
A|----------3-1-1-1-1-1-3-0-0-0-0-0-3-3-3--0-0-0-0-0-| /
D|-0--------------------------------3-3-3--0-0-0-0-0-|/

Guitar 2, enter on x2
E|-2-1-2-4-2-1-2-1-2-1-2-4-2--------------------|
B|----------------------------------------------|
G|----------------------------------------------|
D|----------------------------3-3-3--0-0-0-0-0--|
A|----------------------------3-3-3--0-0-0-0-0--|
D|----------------------------3-3-3--0-0-0-0-0--|

...next part


E|--------------------------------------------------------------------------|
B|--------------------------------------------------------------------------|
G|--------------------------------------------------------------------------|
D|---------------------------------7-7-7-5-5-5-5-0--7-7-7--5--3-3-3-3-3-----|
A|---5-5-5-3-1-1-1-1-1-3-5-5-5-5-5---------------0--x-x-x--x--x-x-x-x-x-----|
D|-0---------------------------------------------0--5-5-5--3--1-1-1-1-1-----|

-------------------------------------------------------|
-------------------------------------------------------|
------2-2----------------------------------------------|
------2-2--3-3-3-0-0-0-0-0-----------------------------|
------0-0--3-3-3-0-0-0-0-0-----------------------------|
-----------3-3-3-0-0-0-0-0-----------------------------|

Scream-0 part

E|-----------------------------------------------|
B|----------------------------5(Ring)------------|A lot of times..
G|----------------------------8(h9p8)------------|
D|-----------------------------------------------|
A|-0---0-0---0-0-0---0-0---0---------------------|
D|-0---0-0---0-0-0---0-0---0---------------------|
   ^   ^ ^   ^ ^ ^   ^ ^   ^


E|-------------5-5-5-3-3-3-2h3p2-------------------|
B|-3-3-3-2-2-2-------------------5-2---------------|
G|-------------------------------------------------|
D|-------------------------------------------------|
A|-------------------------------------------------|
D|-------------------------------------------------|


Thats all I'm doin right now, I'll update it later...
kept it lazy and stuck to the lower notes so its not as accurate
as it could be

Key: ^ = palm mute
     h = hammer-on
     p = pull-off
Listen to the song and fix up anything that doesn't soud right to you.
Tap to rate this tab
# A B C D E F G H I J K L M N O P Q R S T U V W X Y Z